Oops, an error
Loading. Please wait.

Chamber The Cartridge bass

version 1
version 1

Whole song

Interactive

4,833 views 3 this week
3 commentsread comments
1 2 3 4 5
x 7
add to favorites
×
Save as Personal and add changes to this tab that will be seen only by you. Learn more ›
×
You can save this tab as Personal to edit and correct it or add notes. All changes will be seen only by you. Learn more »
launch autoscroll
font size
0
reset
guitar tuner
edit
Autoscroll
slow
fast
+/-
esc
set tempo
stop
Author
Difficulty
intro 
play with the guitar
                                                          x2
G|----------------------------------------------------------|----|
D|----------------------------------------------------------|----|
A|-3~-5-6~-5-6-8--6-5-6-5-3-1---3~-5-6~-5-6-8--6-5-9--7-6-4-|-3~-|
E|----------------------------------------------------------|----|

verse(fast) 

|----------------------------------------------------------------------|
|----------------------------------------------------------------------|
|---3-3-3-3-3-3-3-3---------1-1-1-1---3-3-3-3-3-3-3-3--6-6--6-6-4-4-4-4|x2
|-------------------4-4-4-4--------------------------------------------|

pre-chorus
|------------------------|---------------------|
|------------------------|---------------------|
|------------------------|------------3----1---|
|-4-3-3-(x6)-4-1-1-1-1-1-|-4-3-3-(x6)---4---3--|

chorus
|------------------------------------------------------------------------|
|------------------------------------------------------------------------|
|--3-3-3-3-3-3-3-3-----------------13-13-13-13-11-11-9-11-11-11-11-9-7-7-|
|------------------4-4-4-4-4-4-4-4---------------------------------------|x4

post chorus
|---------------------------------------------------|
|---------------------------------------------------|
|---3-3-3-3-3-3-3-3-3-3-3-3-3-3-3-3/12--------------|
|---------------------------------------------------|



verse

pre-chorus

chorus

bridge
|-----------------------------------------------------------------|
|-----------------------------------------------------------------|
|-3-3-3-3-3-3-3-3-------------------------------------------------|
|-----------------6-6-6-6-4-4-4-4-2-2-2-2-2-2-2-2-4-4-4-4-6-6-6-6-|

intro

chorus

            
            
Suggest correction
Creating personal tab
Creating personal tab
You can edit any tab online and save it as your Personal.

You can edit, replace or remove any tab part or add personal notes – all changes will be seen only by you.

Personal tabs can be accessed anytime from any device, even offline.
Learn more »
comments
print report bad tab
3 comments total.
+1 reply
bobino819 418 Apr 15, 2007 04:20 PM

sorry but the verse is not

-----------------------------------------
-----------------------------------------
--33333333------1111-33333333-6666-4444--
-----------4444--------------------------

but

-----------------------------------------
-----------------------------------------
--33333333------1111-33333333-6666-5555--
-----------4444--------------------------

+1 reply
bass junkiee 62 Jun 27, 2007 03:31 PM

intro is not accurate
verse is good
pre-chorus is good
chorus is not accurate
bridge is not
|---------------------------------------------------|
|---------------------------------------------------|
|---3-3-3-3-3-3-3-3-3-3-3-3-3-3-3-3/12--------------|
|---------------------------------------------------|

instead use
----------------------------------------------------
----------------------------------------------------
3~--------------------------3~------------------12/-
----------------------------------------------------


just concentrate on getting the tab accurate

0 reply
FBassman 1,012 May 14, 2008 03:26 PM

not very accurate

i have a detailed tab that should be up soon

guest
You may want to rate the tab now too:
select rating
Wanna post a correction for this tab? Suggest correction