Oops, an error
Loading. Please wait.

Chamber The Cartridge tab

version 4
version 4

Whole song

Interactive

1,775 views 1 this week
1 commentread comment
1 2 3 4 5
2 more votes to show rating
add to favorites
×
Save as Personal and add changes to this tab that will be seen only by you. Learn more ›
×
You can save this tab as Personal to edit and correct it or add notes. All changes will be seen only by you. Learn more »
launch autoscroll
font size
0
reset
how to read this tab
guitar tuner
edit
Autoscroll
slow
fast
+/-
esc
set tempo
stop
Chamber the Cartridge
Rise Against
The Sufferer & The Witness (2006)

Chamber the Cartridge:  written by Tim McIlrath, Chris Chasse, Joe Principe,
and Brandon Barnes

GTR I - Eb Tuning "Tim McIlrath" (eb,Bb,Gb,Db,Ab,Eb)
GTR II - Eb Tuning "Chris Chasse" (eb,Bb,Gb,Db,Ab,Eb)
GTR III - Eb Tuning "Fill" (eb,Bb,Gb,Db,Ab,Eb)

Intro

   GTR I
eb|-------------------------------------------------|
Bb|-------------------------------------------------|
Gb|--6-----------------8/-9--9-----------------8/-9-|
Db|--x-----------------x--x--x-----------------x--x-|
Ab|--4-----------------6/-7--7-----------------6/-7-|
Eb|-------------------------------------------------|

   GTR I
eb|-------------------------------------------------|
Bb|-------------------------------------------------|
Gb|--9----11-----9-----8-----9-----8-----6-----4----|
Db|--x-----x-----x-----x-----x-----x-----x-----x----|
Ab|--7-----9-----7-----6-----7-----6-----4-----2----|
Eb|-------------------------------------------------|

   GTR I
eb|-------------------------------------------------|
Bb|-------------------------------------------------|
Gb|--6-----------------8/-9--9-----------------8/-9-|
Db|--x-----------------x--x--x-----------------x--x-|
Ab|--4-----------------6/-7--7-----------------6/-7-|
Eb|-------------------------------------------------|

   GTR I
eb|-------------------------------------------------|
Bb|-------------------------------------------------|
Gb|--9----11-----9-----8----13----11-----9-----8----|
Db|--x-----x-----x-----x-----x-----x-----x-----x----|
Ab|--7-----9-----7-----6----11-----9-----7-----6----|
Eb|-------------------------------------------------|

   GTR I
eb|-------------------------------------------------|
Bb|-------------------------------------------------|
Gb|--6-----------------8/-9--9-----------------8/-9-|
Db|--x-----------------x--x--x-----------------x--x-|
Ab|--4-----------------6/-7--7-----------------6/-7-|
Eb|-------------------------------------------------|

   GTR I
eb|-------------------------------------------------|
Bb|-------------------------------------------------|
Gb|--9----11-----9-----8-----9-----8-----6-----4----|
Db|--x-----x-----x-----x-----x-----x-----x-----x----|
Ab|--7-----9-----7-----6-----7-----6-----4-----2----|
Eb|-------------------------------------------------|

   GTR I
eb|-------------------------------------------------|
Bb|-------------------------------------------------|
Gb|--6-----------------8/-9--9-----------------8/-9-|
Db|--x-----------------x--x--x-----------------x--x-|
Ab|--4-----------------6/-7--7-----------------6/-7-|
Eb|-------------------------------------------------|

   GTR I
eb|-------------------------------------------------|
Bb|-------------------------------------------------|
Gb|--9----11-----9-----8----13----11-----9-----8----|
Db|--x-----x-----x-----x-----x-----x-----x-----x----|
Ab|--7-----9-----7-----6----11-----9-----7-----6----|
Eb|-------------------------------------------------|

   GTR I
eb|-------------------------------------------------|
Bb|-------------------------------------------------|
Gb|--6----------------------------------------------|
Db|--x----------------------------------------------|
Ab|--4----------------------------------------------|
Eb|-------------------------------------------------|
  |
  |GTR II
eb|-------------------------------------------------|
Bb|-------------------------------------------------|
Gb|-------------------------------------------------|
Db|--------------------------Pickslide--------------|
Ab|--------------------------Pickslide--------------|
Eb|--------------------------Pickslide--------------|

Verse

   GTR I,II
eb|-------------------------------------------------|
Bb|-------------------------------------------------|
Gb|--6-----6--6-----6--6-----4-----6--6-----6--6----|
Db|--6-----6--6-----6--6-----4-----6--6-----6--6----|
Ab|--4-----4--4-----4--4-----4-----4--4-----4--4----|
Eb|-------------------------------------------------|

   GTR I,II
eb|-------------------------------------------------|
Bb|-------------------------------------------------|
Gb|--9-----9--9-----9--9-----------------9-----9----|
Db|--9-----9--9-----9--9-----9-----9-----9-----9----|
Ab|--7-----7--7-----7--7-----9-----9-----7-----7----|
Eb|--------------------------7-----7----------------|

   GTR I,II
eb|-------------------------------------------------|
Bb|-------------------------------------------------|
Gb|--6-----6--6-----6--6-----4-----6--6-----6--6----|
Db|--6-----6--6-----6--6-----4-----6--6-----6--6----|
Ab|--4-----4--4-----4--4-----4-----4--4-----4--4----|
Eb|-------------------------------------------------|

   GTR I,II
eb|-------------------------------------------------|
Bb|-------------------------------------------------|
Gb|--9-----9--9-----9--9-----------------9-----9----|
Db|--9-----9--9-----9--9-----9-----9-----9-----9----|
Ab|--7-----7--7-----7--7-----9-----9-----7-----7----|
Eb|--------------------------7-----7----------------|

   GTR I,II
eb|-------------------------------------------------|
Bb|-------------------------------------------------|
Gb|--6-----6--6-----6--6-----4-----6--6-----6--6----|
Db|--6-----6--6-----6--6-----4-----6--6-----6--6----|
Ab|--4-----4--4-----4--4-----4-----4--4-----4--4----|
Eb|-------------------------------------------------|

   GTR I,II
eb|-------------------------------------------------|
Bb|-------------------------------------------------|
Gb|--9-----9--9-----9--9-----------------9-----9----|
Db|--9-----9--9-----9--9-----9-----9-----9-----9----|
Ab|--7-----7--7-----7--7-----9-----9-----7-----7----|
Eb|--------------------------7-----7----------------|

   GTR I,II
eb|-------------------------------------------------|
Bb|-------------------------------------------------|
Gb|--6-----6--6-----6--6-----4-----6--6-----6--6----|
Db|--6-----6--6-----6--6-----4-----6--6-----6--6----|
Ab|--4-----4--4-----4--4-----4-----4--4-----4--4----|
Eb|-------------------------------------------------|

   GTR I,II
eb|-------------------------------------------------|
Bb|-------------------------------------------------|
Gb|--9-----9--9-----9--9-----------------9-----9----|
Db|--9-----9--9-----9--9-----9-----9-----9-----9----|
Ab|--7-----7--7-----7--7-----9-----9-----7-----7----|
Eb|--------------------------7-----7----------------|

Pre Chorus

   GTR I,II
eb|-------------------------------------------------|
Bb|-------------------------------------------------|
Gb|-------------------------------------------------|
Db|-------------------------------------------------|
Ab|-------------------------------------------------|
Eb|--4-----4--4-----4--5-----4-----4--4-----4--4----|

   GTR I,II
eb|-------------------------------------------------|
Bb|-------------------------------------------------|
Gb|-------------------------------------------------|
Db|-------------------------------------------------|
Ab|-------------------------------------------------|
Eb|--4-----4--4-----4--5-----4-----4--4-----4--4----|

   GTR I,II
eb|-------------------------------------------------|
Bb|-------------------------------------------------|
Gb|-------------------------------------------------|
Db|-------------------------------------------------|
Ab|-------------------------------------------------|
Eb|--4-----4--4-----4--5-----4-----4--4-----4--4----|

   GTR I,II
eb|-------------------------------------------------|
Bb|-------------------------------------------------|
Gb|-------------------------------------------------|
Db|-------------------------------------------------|
Ab|-------------------------------------------------|
Eb|--2~---------------------------------------------|

   GTR I,II
eb|-------------------------------------------------|
Bb|-------------------------------------------------|
Gb|-------------------------------------------------|
Db|-------------------------------------------------|
Ab|-------------------------------------------------|
Eb|--4-----4--4-----4--5-----4-----4--4-----4--4----|

   GTR I,II
eb|-------------------------------------------------|
Bb|-------------------------------------------------|
Gb|-------------------------------------------------|
Db|-------------------------------------------------|
Ab|-------------------------------------------------|
Eb|--4-----4--4-----4--5-----4-----4--4-----4--4----|

   GTR I,II
eb|-------------------------------------------------|
Bb|-------------------------------------------------|
Gb|-------------------------------------------------|
Db|-------------------------------------------------|
Ab|-------------------------------------------------|
Eb|--4-----4--4-----4--5-----4-----4--4-----4--4----|

   GTR I,II
eb|-------------------------------------------------|
Bb|-------------------------------------------------|
Gb|--9-----------------------------------4----------|
Db|--9-----------9-----------4-----------4----------|
Ab|--7-----------9-----------4-----------2----------|
Eb|--------------7-----------2----------------------|

Chorus

   GTR I
eb|-------------------------------------------------|
Bb|-------------------------------------------------|
Gb|--6-----6--6-----6--6-----6-----6--6-----6--6----|
Db|--6-----6--6-----6--6-----6-----6--6-----6--6----|
Ab|--4-----4--4-----4--4-----4-----4--4-----4--4----|
Eb|-------------------------------------------------|
  |
  |GTR II
eb|-------------------------------------------------|
Bb|-------------------------------------------------|
Gb|-13----13-13----13-13----13----13-13----13-13----|
Db|--x-----x--x-----x--x-----x-----x--x-----x--x----|
Ab|-11----11-11----11-11----11----11-11----11-11----|
Eb|-------------------------------------------------|

   GTR I
eb|-------------------------------------------------|
Bb|-------------------------------------------------|
Gb|--2-----2--2-----2--2-----2-----2--2-----2--2----|
Db|--2-----2--2-----2--2-----2-----2--2-----2--2----|
Ab|--0-----0--0-----0--0-----0-----0--0-----0--0----|
Eb|-------------------------------------------------|
  |
  |GTR II
eb|-------------------------------------------------|
Bb|-------------------------------------------------|
Gb|-14----14-14----14-14----14----14-14----14-16----|
Db|--x-----x--x-----x--x-----x-----x--x-----x--x----|
Ab|-12----12-12----12-12----12----12-12----12-14----|
Eb|-------------------------------------------------|

   GTR I
eb|-------------------------------------------------|
Bb|-------------------------------------------------|
Gb|-------------------------------------------------|
Db|--2-----2--2-----2--2-----2-----2--2-----2--2----|
Ab|--2-----2--2-----2--2-----2-----2--2-----2--2----|
Eb|--0-----0--0-----0--0-----0-----0--0-----0--0----|
  |
  |GTR II
eb|-------------------------------------------------|
Bb|-------------------------------------------------|
Gb|-13----13-13----13-13----14-------13-------11----|
Db|--x-----x--x-----x--x-----x--------x--------x----|
Ab|-11----11-11----11-11----12-------11--------9----|
Eb|-------------------------------------------------|

   GTR I
eb|-------------------------------------------------|
Bb|-------------------------------------------------|
Gb|--4-----4--4-----4--4-----4-----4--4-----4--4----|
Db|--4-----4--4-----4--4-----4-----4--4-----4--4----|
Ab|--2-----2--2-----2--2-----2-----2--2-----2--2----|
Eb|-------------------------------------------------|
  |
  |GTR II
eb|-------------------------------------------------|
Bb|-------------------------------------------------|
Gb|-11----11-11----11-11----11----11-11----11-11----|
Db|--x-----x--x-----x--x-----x-----x--x-----x--x----|
Ab|--9-----9--9-----9--9-----9-----9--9-----9--9----|
Eb|-------------------------------------------------|

   GTR I
eb|-------------------------------------------------|
Bb|-------------------------------------------------|
Gb|--6-----6--6-----6--6-----6-----6--6-----6--6----|
Db|--6-----6--6-----6--6-----6-----6--6-----6--6----|
Ab|--4-----4--4-----4--4-----4-----4--4-----4--4----|
Eb|-------------------------------------------------|
  |
  |GTR II
eb|-------------------------------------------------|
Bb|-------------------------------------------------|
Gb|-13----13-13----13-13----13----13-13----13-13----|
Db|--x-----x--x-----x--x-----x-----x--x-----x--x----|
Ab|-11----11-11----11-11----11----11-11----11-11----|
Eb|-------------------------------------------------|

   GTR I
eb|-------------------------------------------------|
Bb|-------------------------------------------------|
Gb|--2-----2--2-----2--2-----2-----2--2-----2--2----|
Db|--2-----2--2-----2--2-----2-----2--2-----2--2----|
Ab|--0-----0--0-----0--0-----0-----0--0-----0--0----|
Eb|-------------------------------------------------|
  |
  |GTR II
eb|-------------------------------------------------|
Bb|-------------------------------------------------|
Gb|-14----14-14----14-14----14----14-14----14-16----|
Db|--x-----x--x-----x--x-----x-----x--x-----x--x----|
Ab|-12----12-12----12-12----12----12-12----12-14----|
Eb|-------------------------------------------------|

   GTR I
eb|-------------------------------------------------|
Bb|-------------------------------------------------|
Gb|-------------------------------------------------|
Db|--2-----2--2-----2--2-----2-----2--2-----2--2----|
Ab|--2-----2--2-----2--2-----2-----2--2-----2--2----|
Eb|--0-----0--0-----0--0-----0-----0--0-----0--0----|
  |
  |GTR II
eb|-------------------------------------------------|
Bb|-------------------------------------------------|
Gb|-13----13-13----13-13----14-------13-------11----|
Db|--x-----x--x-----x--x-----x--------x--------x----|
Ab|-11----11-11----11-11----12-------11--------9----|
Eb|-------------------------------------------------|

   GTR I
eb|-------------------------------------------------|
Bb|-------------------------------------------------|
Gb|--4-----4--4-----4--4-----4-----4--4-----4--4----|
Db|--4-----4--4-----4--4-----4-----4--4-----4--4----|
Ab|--2-----2--2-----2--2-----2-----2--2-----2--2----|
Eb|-------------------------------------------------|
  |
  |GTR II
eb|-------------------------------------------------|
Bb|-------------------------------------------------|
Gb|-11----11-11----11-11----11----11-11----11-11----|
Db|--x-----x--x-----x--x-----x-----x--x-----x--x----|
Ab|--9-----9--9-----9--9-----9-----9--9-----9--9----|
Eb|-------------------------------------------------|

   GTR I
eb|-------------------------------------------------|
Bb|-------------------------------------------------|
Gb|--6-----6--6-----6--6-----6-----6--6-----6--6----|
Db|--6-----6--6-----6--6-----6-----6--6-----6--6----|
Ab|--4-----4--4-----4--4-----4-----4--4-----4--4----|
Eb|-------------------------------------------------|
  |
  |GTR II
eb|-------------------------------------------------|
Bb|-------------------------------------------------|
Gb|-13----13-13----13-13----13----13-13----13-13----|
Db|--x-----x--x-----x--x-----x-----x--x-----x--x----|
Ab|-11----11-11----11-11----11----11-11----11-11----|
Eb|-------------------------------------------------|

   GTR I
eb|-------------------------------------------------|
Bb|-------------------------------------------------|
Gb|--2-----2--2-----2--2-----2-----2--2-----2--2----|
Db|--2-----2--2-----2--2-----2-----2--2-----2--2----|
Ab|--0-----0--0-----0--0-----0-----0--0-----0--0----|
Eb|-------------------------------------------------|
  |
  |GTR II
eb|-------------------------------------------------|
Bb|-------------------------------------------------|
Gb|-14----14-14----14-14----14----14-14----14-16----|
Db|--x-----x--x-----x--x-----x-----x--x-----x--x----|
Ab|-12----12-12----12-12----12----12-12----12-14----|
Eb|-------------------------------------------------|

   GTR I
eb|-------------------------------------------------|
Bb|-------------------------------------------------|
Gb|-------------------------------------------------|
Db|--2-----2--2-----2--2-----2-----2--2-----2--2----|
Ab|--2-----2--2-----2--2-----2-----2--2-----2--2----|
Eb|--0-----0--0-----0--0-----0-----0--0-----0--0----|
  |
  |GTR II
eb|-------------------------------------------------|
Bb|-------------------------------------------------|
Gb|-13----13-13----13-13----14-------13-------11----|
Db|--x-----x--x-----x--x-----x--------x--------x----|
Ab|-11----11-11----11-11----12-------11--------9----|
Eb|-------------------------------------------------|

   GTR I
eb|-------------------------------------------------|
Bb|-------------------------------------------------|
Gb|--4-----4--4-----4--4-----4-----4--4-----4--4----|
Db|--4-----4--4-----4--4-----4-----4--4-----4--4----|
Ab|--2-----2--2-----2--2-----2-----2--2-----2--2----|
Eb|-------------------------------------------------|
  |
  |GTR II
eb|-------------------------------------------------|
Bb|-------------------------------------------------|
Gb|-11----11-11----11-11----11----11-11----11-11----|
Db|--x-----x--x-----x--x-----x-----x--x-----x--x----|
Ab|--9-----9--9-----9--9-----9-----9--9-----9--9----|
Eb|-------------------------------------------------|

   GTR I
eb|-------------------------------------------------|
Bb|-------------------------------------------------|
Gb|--6-----6--6-----6--6-----6-----6--6-----6--6----|
Db|--6-----6--6-----6--6-----6-----6--6-----6--6----|
Ab|--4-----4--4-----4--4-----4-----4--4-----4--4----|
Eb|-------------------------------------------------|
  |
  |GTR II
eb|-------------------------------------------------|
Bb|-------------------------------------------------|
Gb|-13----13-13----13-13----13----13-13----13-13----|
Db|--x-----x--x-----x--x-----x-----x--x-----x--x----|
Ab|-11----11-11----11-11----11----11-11----11-11----|
Eb|-------------------------------------------------|

   GTR I
eb|-------------------------------------------------|
Bb|-------------------------------------------------|
Gb|--2-----2--2-----2--2-----2-----2--2-----2--2----|
Db|--2-----2--2-----2--2-----2-----2--2-----2--2----|
Ab|--0-----0--0-----0--0-----0-----0--0-----0--0----|
Eb|-------------------------------------------------|
  |
  |GTR II
eb|-------------------------------------------------|
Bb|-------------------------------------------------|
Gb|-14----14-14----14-14----14----14-14----14-16----|
Db|--x-----x--x-----x--x-----x-----x--x-----x--x----|
Ab|-12----12-12----12-12----12----12-12----12-14----|
Eb|-------------------------------------------------|

   GTR I
eb|-------------------------------------------------|
Bb|-------------------------------------------------|
Gb|-------------------------------------------------|
Db|--2-----2--2-----2--2-----2-----2--2-----2--2----|
Ab|--2-----2--2-----2--2-----2-----2--2-----2--2----|
Eb|--0-----0--0-----0--0-----0-----0--0-----0--0----|
  |
  |GTR II
eb|-------------------------------------------------|
Bb|-------------------------------------------------|
Gb|-13----13-13----13-13----14-------13-------11----|
Db|--x-----x--x-----x--x-----x--------x--------x----|
Ab|-11----11-11----11-11----12-------11--------9----|
Eb|-------------------------------------------------|

   GTR I
eb|-------------------------------------------------|
Bb|-------------------------------------------------|
Gb|--4-----4--4-----4--4-----4-----4--4-----4--4----|
Db|--4-----4--4-----4--4-----4-----4--4-----4--4----|
Ab|--2-----2--2-----2--2-----2-----2--2-----2--2----|
Eb|-------------------------------------------------|
  |
  |GTR II
eb|-------------------------------------------------|
Bb|-------------------------------------------------|
Gb|-11----11-11----11-11----11----11-11----11-11----|
Db|--x-----x--x-----x--x-----x-----x--x-----x--x----|
Ab|--9-----9--9-----9--9-----9-----9--9-----9--9----|
Eb|-------------------------------------------------|

Post Chorus

   GTR I                    |---------TRM---------|
eb|-------------------------------------------------|
Bb|-------------------------14-14-14-14-14-14-14-14-|
Gb|--6-----------6----------13-13-13-13-13-13-13-13-|
Db|--6-----------6----------11-11-11-11-11-11-11-11-|
Ab|--4-----------4----------------------------------|
Eb|-------------------------------------------------|
  |
  |GTR II
eb|-------------------------------------------------|
Bb|-------------------------------------------------|
Gb|--6-----------6-----------6-----------6----------|
Db|--x-----------x-----------x-----------x----------|
Ab|--4-----------4-----------4-----------4----------|
Eb|-------------------------------------------------|

Verse

   GTR I,II
eb|-------------------------------------------------|
Bb|-------------------------------------------------|
Gb|--6-----6--6-----6--6-----4-----6--6-----6--6----|
Db|--6-----6--6-----6--6-----4-----6--6-----6--6----|
Ab|--4-----4--4-----4--4-----4-----4--4-----4--4----|
Eb|-------------------------------------------------|

   GTR I,II
eb|-------------------------------------------------|
Bb|-------------------------------------------------|
Gb|--9-----9--9-----9--9-----------------9-----9----|
Db|--9-----9--9-----9--9-----9-----9-----9-----9----|
Ab|--7-----7--7-----7--7-----9-----9-----7-----7----|
Eb|--------------------------7-----7----------------|

   GTR I,II
eb|-------------------------------------------------|
Bb|-------------------------------------------------|
Gb|--6-----6--6-----6--6-----4-----6--6-----6--6----|
Db|--6-----6--6-----6--6-----4-----6--6-----6--6----|
Ab|--4-----4--4-----4--4-----4-----4--4-----4--4----|
Eb|-------------------------------------------------|

   GTR I,II
eb|-------------------------------------------------|
Bb|-------------------------------------------------|
Gb|--9-----9--9-----9--9-----------------9-----9----|
Db|--9-----9--9-----9--9-----9-----9-----9-----9----|
Ab|--7-----7--7-----7--7-----9-----9-----7-----7----|
Eb|--------------------------7-----7----------------|

   GTR I,II
eb|-------------------------------------------------|
Bb|-------------------------------------------------|
Gb|--6-----6--6-----6--6-----4-----6--6-----6--6----|
Db|--6-----6--6-----6--6-----4-----6--6-----6--6----|
Ab|--4-----4--4-----4--4-----4-----4--4-----4--4----|
Eb|-------------------------------------------------|

   GTR I,II
eb|-------------------------------------------------|
Bb|-------------------------------------------------|
Gb|--9-----9--9-----9--9-----------------9-----9----|
Db|--9-----9--9-----9--9-----9-----9-----9-----9----|
Ab|--7-----7--7-----7--7-----9-----9-----7-----7----|
Eb|--------------------------7-----7----------------|

   GTR I,II
eb|-------------------------------------------------|
Bb|-------------------------------------------------|
Gb|--6-----6--6-----6--6-----4-----6--6-----6--6----|
Db|--6-----6--6-----6--6-----4-----6--6-----6--6----|
Ab|--4-----4--4-----4--4-----4-----4--4-----4--4----|
Eb|-------------------------------------------------|

   GTR I,II
eb|-------------------------------------------------|
Bb|-------------------------------------------------|
Gb|--9-----9--9-----9--9-----------------9-----9----|
Db|--9-----9--9-----9--9-----9-----9-----9-----9----|
Ab|--7-----7--7-----7--7-----9-----9-----7-----7----|
Eb|--------------------------7-----7----------------|

Pre Chorus

   GTR I,II
eb|-------------------------------------------------|
Bb|-------------------------------------------------|
Gb|-------------------------------------------------|
Db|-------------------------------------------------|
Ab|-------------------------------------------------|
Eb|--4-----4--4-----4--5-----4-----4--4-----4--4----|

   GTR I,II
eb|-------------------------------------------------|
Bb|-------------------------------------------------|
Gb|-------------------------------------------------|
Db|-------------------------------------------------|
Ab|-------------------------------------------------|
Eb|--4-----4--4-----4--5-----4-----4--4-----4--4----|

   GTR I,II
eb|-------------------------------------------------|
Bb|-------------------------------------------------|
Gb|-------------------------------------------------|
Db|-------------------------------------------------|
Ab|-------------------------------------------------|
Eb|--4-----4--4-----4--5-----4-----4--4-----4--4----|

   GTR I,II
eb|-------------------------------------------------|
Bb|-------------------------------------------------|
Gb|-------------------------------------------------|
Db|-------------------------------------------------|
Ab|-------------------------------------------------|
Eb|--2~---------------------------------------------|

   GTR I,II
eb|-------------------------------------------------|
Bb|-------------------------------------------------|
Gb|-------------------------------------------------|
Db|-------------------------------------------------|
Ab|-------------------------------------------------|
Eb|--4-----4--4-----4--5-----4-----4--4-----4--4----|

   GTR I,II
eb|-------------------------------------------------|
Bb|-------------------------------------------------|
Gb|-------------------------------------------------|
Db|-------------------------------------------------|
Ab|-------------------------------------------------|
Eb|--4-----4--4-----4--5-----4-----4--4-----4--4----|

   GTR I,II
eb|-------------------------------------------------|
Bb|-------------------------------------------------|
Gb|-------------------------------------------------|
Db|-------------------------------------------------|
Ab|-------------------------------------------------|
Eb|--4-----4--4-----4--5-----4-----4--4-----4--4----|

   GTR I,II
eb|-------------------------------------------------|
Bb|-------------------------------------------------|
Gb|--9-----------------------------------4----------|
Db|--9-----------9-----------4-----------4----------|
Ab|--7-----------9-----------4-----------2----------|
Eb|--------------7-----------2----------------------|

Chorus

   GTR I
eb|-------------------------------------------------|
Bb|-------------------------------------------------|
Gb|--6-----6--6-----6--6-----6-----6--6-----6--6----|
Db|--6-----6--6-----6--6-----6-----6--6-----6--6----|
Ab|--4-----4--4-----4--4-----4-----4--4-----4--4----|
Eb|-------------------------------------------------|
  |
  |GTR II
eb|-------------------------------------------------|
Bb|-------------------------------------------------|
Gb|-13----13-13----13-13----13----13-13----13-13----|
Db|--x-----x--x-----x--x-----x-----x--x-----x--x----|
Ab|-11----11-11----11-11----11----11-11----11-11----|
Eb|-------------------------------------------------|

   GTR I
eb|-------------------------------------------------|
Bb|-------------------------------------------------|
Gb|--2-----2--2-----2--2-----2-----2--2-----2--2----|
Db|--2-----2--2-----2--2-----2-----2--2-----2--2----|
Ab|--0-----0--0-----0--0-----0-----0--0-----0--0----|
Eb|-------------------------------------------------|
  |
  |GTR II
eb|-------------------------------------------------|
Bb|-------------------------------------------------|
Gb|-14----14-14----14-14----14----14-14----14-16----|
Db|--x-----x--x-----x--x-----x-----x--x-----x--x----|
Ab|-12----12-12----12-12----12----12-12----12-14----|
Eb|-------------------------------------------------|

   GTR I
eb|-------------------------------------------------|
Bb|-------------------------------------------------|
Gb|-------------------------------------------------|
Db|--2-----2--2-----2--2-----2-----2--2-----2--2----|
Ab|--2-----2--2-----2--2-----2-----2--2-----2--2----|
Eb|--0-----0--0-----0--0-----0-----0--0-----0--0----|
  |
  |GTR II
eb|-------------------------------------------------|
Bb|-------------------------------------------------|
Gb|-13----13-13----13-13----14-------13-------11----|
Db|--x-----x--x-----x--x-----x--------x--------x----|
Ab|-11----11-11----11-11----12-------11--------9----|
Eb|-------------------------------------------------|

   GTR I
eb|-------------------------------------------------|
Bb|-------------------------------------------------|
Gb|--4-----4--4-----4--4-----4-----4--4-----4--4----|
Db|--4-----4--4-----4--4-----4-----4--4-----4--4----|
Ab|--2-----2--2-----2--2-----2-----2--2-----2--2----|
Eb|-------------------------------------------------|
  |
  |GTR II
eb|-------------------------------------------------|
Bb|-------------------------------------------------|
Gb|-11----11-11----11-11----11----11-11----11-11----|
Db|--x-----x--x-----x--x-----x-----x--x-----x--x----|
Ab|--9-----9--9-----9--9-----9-----9--9-----9--9----|
Eb|-------------------------------------------------|

   GTR I
eb|-------------------------------------------------|
Bb|-------------------------------------------------|
Gb|--6-----6--6-----6--6-----6-----6--6-----6--6----|
Db|--6-----6--6-----6--6-----6-----6--6-----6--6----|
Ab|--4-----4--4-----4--4-----4-----4--4-----4--4----|
Eb|-------------------------------------------------|
  |
  |GTR II
eb|-------------------------------------------------|
Bb|-------------------------------------------------|
Gb|-13----13-13----13-13----13----13-13----13-13----|
Db|--x-----x--x-----x--x-----x-----x--x-----x--x----|
Ab|-11----11-11----11-11----11----11-11----11-11----|
Eb|-------------------------------------------------|

   GTR I
eb|-------------------------------------------------|
Bb|-------------------------------------------------|
Gb|--2-----2--2-----2--2-----2-----2--2-----2--2----|
Db|--2-----2--2-----2--2-----2-----2--2-----2--2----|
Ab|--0-----0--0-----0--0-----0-----0--0-----0--0----|
Eb|-------------------------------------------------|
  |
  |GTR II
eb|-------------------------------------------------|
Bb|-------------------------------------------------|
Gb|-14----14-14----14-14----14----14-14----14-16----|
Db|--x-----x--x-----x--x-----x-----x--x-----x--x----|
Ab|-12----12-12----12-12----12----12-12----12-14----|
Eb|-------------------------------------------------|

   GTR I
eb|-------------------------------------------------|
Bb|-------------------------------------------------|
Gb|-------------------------------------------------|
Db|--2-----2--2-----2--2-----2-----2--2-----2--2----|
Ab|--2-----2--2-----2--2-----2-----2--2-----2--2----|
Eb|--0-----0--0-----0--0-----0-----0--0-----0--0----|
  |
  |GTR II
eb|-------------------------------------------------|
Bb|-------------------------------------------------|
Gb|-13----13-13----13-13----14-------13-------11----|
Db|--x-----x--x-----x--x-----x--------x--------x----|
Ab|-11----11-11----11-11----12-------11--------9----|
Eb|-------------------------------------------------|

   GTR I
eb|-------------------------------------------------|
Bb|-------------------------------------------------|
Gb|--4-----4--4-----4--4-----4-----4--4-----4--4----|
Db|--4-----4--4-----4--4-----4-----4--4-----4--4----|
Ab|--2-----2--2-----2--2-----2-----2--2-----2--2----|
Eb|-------------------------------------------------|
  |
  |GTR II
eb|-------------------------------------------------|
Bb|-------------------------------------------------|
Gb|-11----11-11----11-11----11----11-11----11-11----|
Db|--x-----x--x-----x--x-----x-----x--x-----x--x----|
Ab|--9-----9--9-----9--9-----9-----9--9-----9--9----|
Eb|-------------------------------------------------|

   GTR I
eb|-------------------------------------------------|
Bb|-------------------------------------------------|
Gb|--6-----6--6-----6--6-----6-----6--6-----6--6----|
Db|--6-----6--6-----6--6-----6-----6--6-----6--6----|
Ab|--4-----4--4-----4--4-----4-----4--4-----4--4----|
Eb|-------------------------------------------------|
  |
  |GTR II
eb|-------------------------------------------------|
Bb|-------------------------------------------------|
Gb|-13----13-13----13-13----13----13-13----13-13----|
Db|--x-----x--x-----x--x-----x-----x--x-----x--x----|
Ab|-11----11-11----11-11----11----11-11----11-11----|
Eb|-------------------------------------------------|

   GTR I
eb|-------------------------------------------------|
Bb|-------------------------------------------------|
Gb|--2-----2--2-----2--2-----2-----2--2-----2--2----|
Db|--2-----2--2-----2--2-----2-----2--2-----2--2----|
Ab|--0-----0--0-----0--0-----0-----0--0-----0--0----|
Eb|-------------------------------------------------|
  |
  |GTR II
eb|-------------------------------------------------|
Bb|-------------------------------------------------|
Gb|-14----14-14----14-14----14----14-14----14-16----|
Db|--x-----x--x-----x--x-----x-----x--x-----x--x----|
Ab|-12----12-12----12-12----12----12-12----12-14----|
Eb|-------------------------------------------------|

   GTR I
eb|-------------------------------------------------|
Bb|-------------------------------------------------|
Gb|-------------------------------------------------|
Db|--2-----2--2-----2--2-----2-----2--2-----2--2----|
Ab|--2-----2--2-----2--2-----2-----2--2-----2--2----|
Eb|--0-----0--0-----0--0-----0-----0--0-----0--0----|
  |
  |GTR II
eb|-------------------------------------------------|
Bb|-------------------------------------------------|
Gb|-13----13-13----13-13----14-------13-------11----|
Db|--x-----x--x-----x--x-----x--------x--------x----|
Ab|-11----11-11----11-11----12-------11--------9----|
Eb|-------------------------------------------------|

   GTR I
eb|-------------------------------------------------|
Bb|-------------------------------------------------|
Gb|--4-----4--4-----4--4-----4-----4--4-----4--4----|
Db|--4-----4--4-----4--4-----4-----4--4-----4--4----|
Ab|--2-----2--2-----2--2-----2-----2--2-----2--2----|
Eb|-------------------------------------------------|
  |
  |GTR II
eb|-------------------------------------------------|
Bb|-------------------------------------------------|
Gb|-11----11-11----11-11----11----11-11----11-11----|
Db|--x-----x--x-----x--x-----x-----x--x-----x--x----|
Ab|--9-----9--9-----9--9-----9-----9--9-----9--9----|
Eb|-------------------------------------------------|

   GTR I
eb|-------------------------------------------------|
Bb|-------------------------------------------------|
Gb|--6-----6--6-----6--6-----6-----6--6-----6--6----|
Db|--6-----6--6-----6--6-----6-----6--6-----6--6----|
Ab|--4-----4--4-----4--4-----4-----4--4-----4--4----|
Eb|-------------------------------------------------|
  |
  |GTR II
eb|-------------------------------------------------|
Bb|-------------------------------------------------|
Gb|-13----13-13----13-13----13----13-13----13-13----|
Db|--x-----x--x-----x--x-----x-----x--x-----x--x----|
Ab|-11----11-11----11-11----11----11-11----11-11----|
Eb|-------------------------------------------------|

   GTR I
eb|-------------------------------------------------|
Bb|-------------------------------------------------|
Gb|--2-----2--2-----2--2-----2-----2--2-----2--2----|
Db|--2-----2--2-----2--2-----2-----2--2-----2--2----|
Ab|--0-----0--0-----0--0-----0-----0--0-----0--0----|
Eb|-------------------------------------------------|
  |
  |GTR II
eb|-------------------------------------------------|
Bb|-------------------------------------------------|
Gb|-14----14-14----14-14----14----14-14----14-16----|
Db|--x-----x--x-----x--x-----x-----x--x-----x--x----|
Ab|-12----12-12----12-12----12----12-12----12-14----|
Eb|-------------------------------------------------|

   GTR I
eb|-------------------------------------------------|
Bb|-------------------------------------------------|
Gb|-------------------------------------------------|
Db|--2-----2--2-----2--2-----2-----2--2-----2--2----|
Ab|--2-----2--2-----2--2-----2-----2--2-----2--2----|
Eb|--0-----0--0-----0--0-----0-----0--0-----0--0----|
  |
  |GTR II
eb|-------------------------------------------------|
Bb|-------------------------------------------------|
Gb|-13----13-13----13-13----14-------13-------11----|
Db|--x-----x--x-----x--x-----x--------x--------x----|
Ab|-11----11-11----11-11----12-------11--------9----|
Eb|-------------------------------------------------|

   GTR I
eb|-------------------------------------------------|
Bb|-------------------------------------------------|
Gb|--4-----4--4-----4--4-----4-----4--4-----4--4----|
Db|--4-----4--4-----4--4-----4-----4--4-----4--4----|
Ab|--2-----2--2-----2--2-----2-----2--2-----2--2----|
Eb|-------------------------------------------------|
  |
  |GTR II
eb|-------------------------------------------------|
Bb|-------------------------------------------------|
Gb|-11----11-11----11-11----11----11-11----11-11----|
Db|--x-----x--x-----x--x-----x-----x--x-----x--x----|
Ab|--9-----9--9-----9--9-----9-----9--9-----9--9----|
Eb|-------------------------------------------------|

Bridge

   GTR I,II
eb|-------------------------------------------------|
Bb|-------------------------------------------------|
Gb|--6----------------------------------------------|
Db|--6----------------------------------------------|
Ab|--4----------------------------------------------|
Eb|-------------------------------------------------|

   GTR I,II
eb|-------------------------------------------------|
Bb|-------------------------------------------------|
Gb|-------------------------------------------------|
Db|-------------------------------------------------|
Ab|-------------------------------------------------|
Eb|-------------------------------------------------|

   GTR II
eb|-------------------------------------------------|
Bb|-------------------------------------------------|
Gb|-------------------------------------------------|
Db|--6--6--6--6--6--6--6--6--9--9--9--9-------------|
Ab|--4--4--4--4--4--4--4--4--7--7--7--7--9--9--9--9-|
Eb|--------------------------------------7--7--7--7-|

   GTR II
eb|-------------------------------------------------|
Bb|-------------------------------------------------|
Gb|-------------------------------------------------|
Db|--------------------------9--9--9--9-11-11-11-11-|
Ab|--4--4--4--4--4--4--4--4--7--7--7--7--9--9--9--9-|
Eb|--2--2--2--2--2--2--2--2-------------------------|

   GTR I,III
eb|-------------------------------------------------|
Bb|-------------------------------------------------|
Gb|--6----------------------------------------------|
Db|--6----------------------------------------------|
Ab|--4----------------------------------------------|
Eb|-------------------------------------------------|
  |
  |GTR II
eb|-------------------------------------------------|
Bb|-------------------------------------------------|
Gb|-------------------------------------------------|
Db|--6--6--6--6--6--6--6--6--9--9--9--9-------------|
Ab|--4--4--4--4--4--4--4--4--7--7--7--7--9--9--9--9-|
Eb|--------------------------------------7--7--7--7-|

   GTR I
eb|-------------------------------------------------|
Bb|-------------------------------------------------|
Gb|-------------------------------------------------|
Db|--------------------------9----------------------|
Ab|--------------------------7---9---7---2---4---6--|
Eb|------------------------------7---5---0---2---4--|
  |
  |GTR II
eb|-------------------------------------------------|
Bb|-------------------------------------------------|
Gb|-------------------------------------------------|
Db|--------------------------9----------------------|
Ab|--4--4--4--4--4--4--4--4--7---9---7---2---4---6--|
Eb|--2--2--2--2--2--2--2--2------7---5---0---2---4--|

   GTR I,II
eb|-------------------------------------------------|
Bb|-------------------------------------------------|
Gb|--6--6--6--6--6--6--6--6--9--9--9--9-------------|
Db|--6--6--6--6--6--6--6--6--9--9--9--9--9--9--9--9-|
Ab|--4--4--4--4--4--4--4--4--7--7--7--7--9--9--9--9-|
Eb|--------------------------------------7--7--7--7-|

   GTR I,II
eb|-------------------------------------------------|
Bb|-------------------------------------------------|
Gb|--------------------------9--9--9--9-11-11-11-11-|
Db|--4--4--4--4--4--4--4--4--9--9--9--9-11-11-11-11-|
Ab|--4--4--4--4--4--4--4--4--7--7--7--7--9--9--9--9-|
Eb|--2--2--2--2--2--2--2--2-------------------------|

   GTR I,II
eb|-------------------------------------------------|
Bb|-------------------------------------------------|
Gb|--6--6--6--6--6--6--6--6--9--9--9--9-------------|
Db|--6--6--6--6--6--6--6--6--9--9--9--9--9--9--9--9-|
Ab|--4--4--4--4--4--4--4--4--7--7--7--7--9--9--9--9-|
Eb|--------------------------------------7--7--7--7-|

   GTR I,II
eb|-------------------------------------------------|
Bb|-------------------------------------------------|
Gb|--------------------------9----------------------|
Db|--4--4--4--4--4--4--4--4--9---9---7---2---4---6--|
Ab|--4--4--4--4--4--4--4--4--7---9---7---2---4---6--|
Eb|--2--2--2--2--2--2--2--2------7---5---0---2---4--|

   GTR I,II
eb|-------------------------------------------------|
Bb|-------------------------------------------------|
Gb|--6--6--6--6--6--6--6--6--9--9--9--9-------------|
Db|--6--6--6--6--6--6--6--6--9--9--9--9--9--9--9--9-|
Ab|--4--4--4--4--4--4--4--4--7--7--7--7--9--9--9--9-|
Eb|--------------------------------------7--7--7--7-|
  |
  |GTR III
eb|-------------------------------------------------|
Bb|-------------------------------------------------|
Gb|--6--6--6--6--6--6--6--6--9--9--9--9--9--9--9--9-|
Db|--x--x--x--x--x--x--x--x--x--x--x--x--x--x--x--x-|
Ab|--4--4--4--4--4--4--4--4--7--7--7--7--7--7--7--7-|
Eb|-------------------------------------------------|

   GTR I,II
eb|-------------------------------------------------|
Bb|-------------------------------------------------|
Gb|--------------------------9--9--9--9-11-11-11-11-|
Db|--4--4--4--4--4--4--4--4--9--9--9--9-11-11-11-11-|
Ab|--4--4--4--4--4--4--4--4--7--7--7--7--9--9--9--9-|
Eb|--2--2--2--2--2--2--2--2-------------------------|
  |
  |GTR III
eb|-------------------------------------------------|
Bb|-------------------------------------------------|
Gb|-11-11-11-11-11-11-11-11--9--9--9--9--8--8--8--8-|
Db|--x--x--x--x--x--x--x--x--x--x--x--x--x--x--x--x-|
Ab|--9--9--9--9--9--9--9--9--7--7--7--7--6--6--6--6-|
Eb|-------------------------------------------------|

   GTR I,II
eb|-------------------------------------------------|
Bb|-------------------------------------------------|
Gb|--6--6--6--6--6--6--6--6--9--9--9--9-------------|
Db|--6--6--6--6--6--6--6--6--9--9--9--9--9--9--9--9-|
Ab|--4--4--4--4--4--4--4--4--7--7--7--7--9--9--9--9-|
Eb|--------------------------------------7--7--7--7-|
  |
  |GTR III
eb|-------------------------------------------------|
Bb|-------------------------------------------------|
Gb|--6--6--6--6--6--6--6--6--9--9--9--9--9--9--9--9-|
Db|--x--x--x--x--x--x--x--x--x--x--x--x--x--x--x--x-|
Ab|--4--4--4--4--4--4--4--4--7--7--7--7--7--7--7--7-|
Eb|-------------------------------------------------|

   GTR I,II
eb|-------------------------------------------------|
Bb|-------------------------------------------------|
Gb|--------------------------9----------------------|
Db|--4--4--4--4--4--4--4--4--9---9---7---2---4---6--|
Ab|--4--4--4--4--4--4--4--4--7---9---7---2---4---6--|
Eb|--2--2--2--2--2--2--2--2------7---5---0---2---4--|
  |
  |GTR III
eb|-------------------------------------------------|
Bb|-------------------------------------------------|
Gb|-11-11-11-11-11-11-11-11--9--9--9--9--8--8--8--8-|
Db|--x--x--x--x--x--x--x--x--x--x--x--x--x--x--x--x-|
Ab|--9--9--9--9--9--9--9--9--7--7--7--7--6--6--6--6-|
Eb|-------------------------------------------------|

Bridge 2

   GTR I
eb|-------------------------------------------------|
Bb|-------------------------------------------------|
Gb|--6-----------------8/-9--9-----------------8/-9-|
Db|--x-----------------x--x--x-----------------x--x-|
Ab|--4-----------------6/-7--7-----------------6/-7-|
Eb|-------------------------------------------------|
  |
  |GTR II
eb|-------------------------------------------------|
Bb|-------------------------------------------------|
Gb|--6----------------------------------------------|
Db|--6----------------------------------------------|
Ab|--4----------------------------------------------|
Eb|-------------------------------------------------|
  |
  |GTR III
eb|-------------------------------------------------|
Bb|-------------------------------------------------|
Gb|--6----------------------------------------------|
Db|--x----------------------------------------------|
Ab|--4----------------------------------------------|
Eb|-------------------------------------------------|

   GTR I
eb|-------------------------------------------------|
Bb|-------------------------------------------------|
Gb|--9----11-----9-----8-----9-----8-----6-----4----|
Db|--x-----x-----x-----x-----x-----x-----x-----x----|
Ab|--7-----9-----7-----6-----7-----6-----4-----2----|
Eb|-------------------------------------------------|
  |
  |GTR II
eb|-------------------------------------------------|
Bb|-------------------------------------------------|
Gb|-------------------------------------------------|
Db|-------------------------------------------(4)---|
Ab|-------------------------------------------------|
Eb|-------------------------------------------------|

   GTR I
eb|-------------------------------------------------|
Bb|-------------------------------------------------|
Gb|--6-----------------8/-9--9-----------------8/-9-|
Db|--x-----------------x--x--x-----------------x--x-|
Ab|--4-----------------6/-7--7-----------------6/-7-|
Eb|-------------------------------------------------|
  |
  |GTR II
eb|-------------------------------------------------|
Bb|-(5)---------------------------------------------|
Gb|-------------------------------------------(4)---|
Db|-------------------------------------------------|
Ab|-------------------------------------------------|
Eb|-------------------------------------------------|

   GTR I
eb|-------------------------------------------------|
Bb|-------------------------------------------------|
Gb|--9----11-----9-----8----13----11-----9-----8----|
Db|--x-----x-----x-----x-----x-----x-----x-----x----|
Ab|--7-----9-----7-----6----11-----9-----7-----6----|
Eb|-------------------------------------------------|
  |
  |GTR II
eb|-------------------------------------------------|
Bb|-(5)---(4)---(5)---------------------------------|
Gb|-------------------(4)---------------------------|
Db|-------------------------------------------------|
Ab|-----------------------------------Pickslide-----|
Eb|-----------------------------------Pickslide-----|
  |
  |GTR III
eb|-------------------------------------------------|
Bb|-------------------------------------------------|
Gb|-------------------------------------------------|
Db|-------------------------------------------------|
Ab|-------------------------Pickslide---------------|
Eb|-------------------------Pickslide---------------|

Chorus

   GTR I
eb|-------------------------------------------------|
Bb|-------------------------------------------------|
Gb|--6-----6--6-----6--6-----6-----6--6-----6--6----|
Db|--6-----6--6-----6--6-----6-----6--6-----6--6----|
Ab|--4-----4--4-----4--4-----4-----4--4-----4--4----|
Eb|-------------------------------------------------|
  |
  |GTR II
eb|-------------------------------------------------|
Bb|-------------------------------------------------|
Gb|-13----13-13----13-13----13----13-13----13-13----|
Db|--x-----x--x-----x--x-----x-----x--x-----x--x----|
Ab|-11----11-11----11-11----11----11-11----11-11----|
Eb|-------------------------------------------------|

   GTR I
eb|-------------------------------------------------|
Bb|-------------------------------------------------|
Gb|--2-----2--2-----2--2-----2-----2--2-----2--2----|
Db|--2-----2--2-----2--2-----2-----2--2-----2--2----|
Ab|--0-----0--0-----0--0-----0-----0--0-----0--0----|
Eb|-------------------------------------------------|
  |
  |GTR II
eb|-------------------------------------------------|
Bb|-------------------------------------------------|
Gb|-14----14-14----14-14----14----14-14----14-16----|
Db|--x-----x--x-----x--x-----x-----x--x-----x--x----|
Ab|-12----12-12----12-12----12----12-12----12-14----|
Eb|-------------------------------------------------|

   GTR I
eb|-------------------------------------------------|
Bb|-------------------------------------------------|
Gb|-------------------------------------------------|
Db|--2-----2--2-----2--2-----2-----2--2-----2--2----|
Ab|--2-----2--2-----2--2-----2-----2--2-----2--2----|
Eb|--0-----0--0-----0--0-----0-----0--0-----0--0----|
  |
  |GTR II
eb|-------------------------------------------------|
Bb|-------------------------------------------------|
Gb|-13----13-13----13-13----14-------13-------11----|
Db|--x-----x--x-----x--x-----x--------x--------x----|
Ab|-11----11-11----11-11----12-------11--------9----|
Eb|-------------------------------------------------|

   GTR I
eb|-------------------------------------------------|
Bb|-------------------------------------------------|
Gb|--4-----4--4-----4--4-----4-----4--4-----4--4----|
Db|--4-----4--4-----4--4-----4-----4--4-----4--4----|
Ab|--2-----2--2-----2--2-----2-----2--2-----2--2----|
Eb|-------------------------------------------------|
  |
  |GTR II
eb|-------------------------------------------------|
Bb|-------------------------------------------------|
Gb|-11----11-11----11-11----11----11-11----11-11----|
Db|--x-----x--x-----x--x-----x-----x--x-----x--x----|
Ab|--9-----9--9-----9--9-----9-----9--9-----9--9----|
Eb|-------------------------------------------------|

   GTR I
eb|-------------------------------------------------|
Bb|-------------------------------------------------|
Gb|--6-----6--6-----6--6-----6-----6--6-----6--6----|
Db|--6-----6--6-----6--6-----6-----6--6-----6--6----|
Ab|--4-----4--4-----4--4-----4-----4--4-----4--4----|
Eb|-------------------------------------------------|
  |
  |GTR II
eb|-------------------------------------------------|
Bb|-------------------------------------------------|
Gb|-13----13-13----13-13----13----13-13----13-13----|
Db|--x-----x--x-----x--x-----x-----x--x-----x--x----|
Ab|-11----11-11----11-11----11----11-11----11-11----|
Eb|-------------------------------------------------|

   GTR I
eb|-------------------------------------------------|
Bb|-------------------------------------------------|
Gb|--2-----2--2-----2--2-----2-----2--2-----2--2----|
Db|--2-----2--2-----2--2-----2-----2--2-----2--2----|
Ab|--0-----0--0-----0--0-----0-----0--0-----0--0----|
Eb|-------------------------------------------------|
  |
  |GTR II
eb|-------------------------------------------------|
Bb|-------------------------------------------------|
Gb|-14----14-14----14-14----14----14-14----14-16----|
Db|--x-----x--x-----x--x-----x-----x--x-----x--x----|
Ab|-12----12-12----12-12----12----12-12----12-14----|
Eb|-------------------------------------------------|

   GTR I
eb|-------------------------------------------------|
Bb|-------------------------------------------------|
Gb|-------------------------------------------------|
Db|--2-----2--2-----2--2-----2-----2--2-----2--2----|
Ab|--2-----2--2-----2--2-----2-----2--2-----2--2----|
Eb|--0-----0--0-----0--0-----0-----0--0-----0--0----|
  |
  |GTR II
eb|-------------------------------------------------|
Bb|-------------------------------------------------|
Gb|-13----13-13----13-13----14-------13-------11----|
Db|--x-----x--x-----x--x-----x--------x--------x----|
Ab|-11----11-11----11-11----12-------11--------9----|
Eb|-------------------------------------------------|

   GTR I
eb|-------------------------------------------------|
Bb|-------------------------------------------------|
Gb|--4-----4--4-----4--4-----4-----4--4-----4--4----|
Db|--4-----4--4-----4--4-----4-----4--4-----4--4----|
Ab|--2-----2--2-----2--2-----2-----2--2-----2--2----|
Eb|-------------------------------------------------|
  |
  |GTR II
eb|-------------------------------------------------|
Bb|-------------------------------------------------|
Gb|-11----11-11----11-11----11----11-11----11-11----|
Db|--x-----x--x-----x--x-----x-----x--x-----x--x----|
Ab|--9-----9--9-----9--9-----9-----9--9-----9--9----|
Eb|-------------------------------------------------|

   GTR I
eb|-------------------------------------------------|
Bb|-------------------------------------------------|
Gb|--6-----6--6-----6--6-----6-----6--6-----6--6----|
Db|--6-----6--6-----6--6-----6-----6--6-----6--6----|
Ab|--4-----4--4-----4--4-----4-----4--4-----4--4----|
Eb|-------------------------------------------------|
  |
  |GTR II
eb|-------------------------------------------------|
Bb|-------------------------------------------------|
Gb|-13----13-13----13-13----13----13-13----13-13----|
Db|--x-----x--x-----x--x-----x-----x--x-----x--x----|
Ab|-11----11-11----11-11----11----11-11----11-11----|
Eb|-------------------------------------------------|

   GTR I
eb|-------------------------------------------------|
Bb|-------------------------------------------------|
Gb|--2-----2--2-----2--2-----2-----2--2-----2--2----|
Db|--2-----2--2-----2--2-----2-----2--2-----2--2----|
Ab|--0-----0--0-----0--0-----0-----0--0-----0--0----|
Eb|-------------------------------------------------|
  |
  |GTR II
eb|-------------------------------------------------|
Bb|-------------------------------------------------|
Gb|-14----14-14----14-14----14----14-14----14-16----|
Db|--x-----x--x-----x--x-----x-----x--x-----x--x----|
Ab|-12----12-12----12-12----12----12-12----12-14----|
Eb|-------------------------------------------------|

   GTR I
eb|-------------------------------------------------|
Bb|-------------------------------------------------|
Gb|-------------------------------------------------|
Db|--2-----2--2-----2--2-----2-----2--2-----2--2----|
Ab|--2-----2--2-----2--2-----2-----2--2-----2--2----|
Eb|--0-----0--0-----0--0-----0-----0--0-----0--0----|
  |
  |GTR II
eb|-------------------------------------------------|
Bb|-------------------------------------------------|
Gb|-13----13-13----13-13----14-------13-------11----|
Db|--x-----x--x-----x--x-----x--------x--------x----|
Ab|-11----11-11----11-11----12-------11--------9----|
Eb|-------------------------------------------------|

   GTR I
eb|-------------------------------------------------|
Bb|-------------------------------------------------|
Gb|--4-----4--4-----4--4-----4-----4--4-----4--4----|
Db|--4-----4--4-----4--4-----4-----4--4-----4--4----|
Ab|--2-----2--2-----2--2-----2-----2--2-----2--2----|
Eb|-------------------------------------------------|
  |
  |GTR II
eb|-------------------------------------------------|
Bb|-------------------------------------------------|
Gb|-11----11-11----11-11----11----11-11----11-11----|
Db|--x-----x--x-----x--x-----x-----x--x-----x--x----|
Ab|--9-----9--9-----9--9-----9-----9--9-----9--9----|
Eb|-------------------------------------------------|

   GTR I
eb|-------------------------------------------------|
Bb|-------------------------------------------------|
Gb|--6----------------------------------------------|
Db|--6----------------------------------------------|
Ab|--4----------------------------------------------|
Eb|-------------------------------------------------|
  |
  |GTR II
eb|-------------------------------------------------|
Bb|-------------------------------------------------|
Gb|-13----------------------------------------------|
Db|--x----------------------------------------------|
Ab|-11----------------------------------------------|
Eb|-------------------------------------------------|


| b  bend
| r  release bend
|trp triplet
|TRM tremelo pick
|PH. pinch harmonic
|fbk feedback
| .  palm-mute
| /  slide up
| \  slide down
| h  hammer-on
| p  pull-off
| ~  vibrato
| +  harmonic
| x  Mute note
===============================================================================
Suggest correction
Creating personal tab
Creating personal tab
You can edit any tab online and save it as your Personal.

You can edit, replace or remove any tab part or add personal notes – all changes will be seen only by you.

Personal tabs can be accessed anytime from any device, even offline.
Learn more »
Give kudos to tab author, rate the tab!
1 2 3 4 5
comments
print report bad tab
1 comment total.
0 reply
psycho826 10 Oct 30, 2011 09:34 PM

seriously?

guest
You may want to rate the tab now too:
select rating
Wanna post a correction for this tab? Suggest correction