Oops, an error
Loading. Please wait.

Dancing For Rain Bass Tab

version 2
version 2

Whole song

Interactive

1,943 views 1 this week
no commentswrite comment
1 2 3 4 5
accurate
x 2
add to favorites
launch autoscroll
font size
0
reset
guitar tuner
Tab Pro tools
  • play this tab
  • loop segment
  • change instrument
  • show fretboard
  • metronome
Autoscroll
slow
fast
+/-
esc
set tempo
stop
Difficulty
intermediate
-------------------------------------------------------------------------------
			     Dancing for rain - rise against
-------------------------------------------------------------------------------

Tabbed By : DL
Im pretty sure that this is it, don't hate me if im wrong, its my first tab

listen to song for rythem, but i think the notes are right

Tuning: (Eb A D G)

(0:12)

|---------------------|
|---------------------|
|-------44---22---444-|    (7X)
|-0-1-3----3----3-----|

   (0:34)
|--------------------------------|
|--------------------------------| (1X)
|-------44---22---4444444444444--|   
|-0-1-3----3----3----------------|

  (0:40)

|--------------------------------|
|--------------------------------|
|-----------------2-2-2-2-4-4-4-4| (1X)
|-0-0-0-0-3-3-3-3----------------|

|--------------------------------|
|--------------------------------|
|-----------------2-2-2-2---4----| (1x)
|-0-0-0-0-3-3-3-3---------3------|

|--------------------------------|
|--------------------------------|
|-----------------2-2-2-2-4-4-4-4| (1X)
|-0-0-0-0-3-3-3-3----------------|

|--------------------------------|
|--------------------------------|
|-----------------2-2-2-2---4----| (1x)
|-0-0-0-0-3-3-3-3---------3------|


 (1:05)
|---------------------|
|---------------------|
|-------44---22---444-|    (7X)
|-0-1-3----3----3-----|

  (1:27)
|--------------------------------|
|--------------------------------| (1X)
|-------44---22---4444444444444--|   
|-0-1-3----3----3----------------|

 (1:31)
|--------------------------------|
|--------------------------------|
|-----------------2-2-2-2-4-4-4-4| (1X)
|-0-0-0-0-3-3-3-3----------------|

|--------------------------------|
|--------------------------------|
|-----------------2-2-2-2---4----| (1x)
|-0-0-0-0-3-3-3-3---------3------|

|--------------------------------|
|--------------------------------|
|-----------------2-2-2-2-4-4-4-4| (1X)
|-0-0-0-0-3-3-3-3----------------|

|--------------------------------|
|--------------------------------|
|-----------------2-2-2-2---4----| (1x)
|-0-0-0-0-3-3-3-3---------3------|



   (1:56)
|---------------|
|---------------|
|---------------|
|0~-------------|

 (2:20)
|---------------------------------------------------|
|---------------------------------------------------|
|---------------4-44-44-44-1-4-44-44-44-1-2-22-22---| (2X)
|-0-0-00-0-0-00-------------------------------------|

 (2:45)  
|----------------------------------------------------------------------|
|----------------------------------------------------------------------| 
|------------------1111111111111-444444444444444--1---22222222222222---|
|-0000000000000000-----------------------------------------------------|


|---------------------------------------------------------------------|
|---------------------------------------------------------------------| 
|------------------1111111111111-444444444444444--1---44444444444444--|
|-0000000000000000----------------------------------------------------|


|--------------------------------|
|--------------------------------|
|-----------------2-2-2-2-4-4-4-4| (1X)
|-0-0-0-0-3-3-3-3----------------|

|--------------------------------|
|--------------------------------|
|-----------------2-2-2-2---4----| (1x)
|-0-0-0-0-3-3-3-3---------3------|

|--------------------------------|
|--------------------------------|
|-----------------2-2-2-2-4-4-4-4| (1X)
|-0-0-0-0-3-3-3-3----------------|

|--------------------------------|
|--------------------------------|
|-----------------2-2-2-2---4----| (1x)
|-0-0-0-0-3-3-3-3---------3------|


(3:33)
|-------------------|
|-------------------|
|-2-2-2-2-2-2----4--| (5X)
|-------------3-----|

(3:45)
|--------------|
|--------------|
|--------------|
|0~~-----------|


| /  slide up
| \  slide down
| h  hammer-on
| p  pull-off
| ~  vibrato
| +  harmonic
| x  Mute note
===============================================================================
comments
We did not receive enough feedback on this tab! Please rate:
print report bad tab
1 2 3 4 5
I want to post or [tab]
guest
You may want to rate the tab now too:
select rating
Please do not post tabs as comments. Select "correction" instead!