Oops, an error
Loading. Please wait.

Death Blossoms Bass Tab

version 1
version 1

Whole song

Interactive

1,581 views 1 this week
1 commentread comment
1 2 3 4 5
x 6
add to favorites
launch autoscroll
font size
0
reset
guitar tuner
Autoscroll
slow
fast
+/-
esc
set tempo
stop
Help us to improve Ultimate-Guitar.com Take our survey!
×
This is the new song that they released today onto Guitar Hero World Tour...
Reminds me of old them.

Death Blossoms
Rise Against
Joe Principe - Bass

INTRO

Gb|------------------|------------------|------------------|------------------|
Db|------------------|------------------|------------------|------------------|
Ab|------------------|------------------|------------------|------------------|
Eb|------------------|------------------|------------------|------------------|
    1 + 2 + 3 + 4 +    1 + 2 + 3 + 4 +    1 + 2 + 3 + 4 +    1 + 2 + 3 + 4 +  

VERSE

Gb|------------------|------------------|------------------|------------------|
Db|------------------|------------------|------------------|------------------|
Ab|------------------|------------------|------------------|------------------|
Eb|------------------|------------------|------------------|------------------|
    1 + 2 + 3 + 4 +    1 + 2 + 3 + 4 +    1 + 2 + 3 + 4 +    1 + 2 + 3 + 4 +  

Gb|------------------|------------------|------------------|------------------|
Db|------------------|------------------|------------------|------------------|
Ab|------------------|------------------|------------------|------------------|
Eb|------------------|------------------|------------------|------------------|
    1 + 2 + 3 + 4 +    1 + 2 + 3 + 4 +    1 + 2 + 3 + 4 +    1 + 2 + 3 + 4 +  

Gb|------------------|------------------|------------------|------------------|
Db|------------------|------------------|------------------|------------------|
Ab|-0-0-0-0----------|-3-3-3-3-5-5-5-5--|-0-0-0-0----------|-3-3-3-3-5-5-5-5--|
Eb|---------0-0-0-0--|------------------|---------0-0-0-0--|------------------|
    1 + 2 + 3 + 4 +    1 + 2 + 3 + 4 +    1 + 2 + 3 + 4 +    1 + 2 + 3 + 4 +  
Gb|------------------|------------------|------------------|------------------||
Db|------------------|------------------|------------------|------------------||
Ab|-0-0-0-0----------|-3-3-3-3-5-5-5-5--|------------------|------------------||
Eb|---------0-0-0-0--|------------------|-1-1-1-1-1-1-1-1--|-1----------------||
    1 + 2 + 3 + 4 +    1 + 2 + 3 + 4 +    1 + 2 + 3 + 4 +    1 + 2 + 3 + 4 +
CHORUS

Gb|------------------|------------------|------------------|------------------|
Db|------------------|------------------|------------------|------------------|
Ab|-0-0-0-0----------|-3-3-3-3-5-5-5-5--|-0-0-0-0----------|-3-3-3-3-5-5-5-5--|
Eb|---------0-0-0-0--|------------------|---------0-0-0-0--|------------------|
    1 + 2 + 3 + 4 +    1 + 2 + 3 + 4 +    1 + 2 + 3 + 4 +    1 + 2 + 3 + 4 +  
Gb|------------------|------------------|------------------|------------------||
Db|------------------|------------------|------------------|------------------||
Ab|-0-0-0-0----------|-3-3-3-3-5-5-5-5--|------------------|------------------||
Eb|---------0-0-0-0--|------------------|-1-1-1-1-1-1-1-1--|-1----------------||
    1 + 2 + 3 + 4 +    1 + 2 + 3 + 4 +    1 + 2 + 3 + 4 +    1 + 2 + 3 + 4 +
VERSE

Gb|------------------|------------------|------------------|------------------|
Db|------------------|------------------|------------------|------------------|
Ab|-0-0-0-0----------|-3-3-3-3-5-5-5-5--|-0-0-0-0----------|-3-3-3-3-5-5-5-5--|
Eb|---------0-0-0-0--|------------------|---------0-0-0-0--|------------------|
    1 + 2 + 3 + 4 +    1 + 2 + 3 + 4 +    1 + 2 + 3 + 4 +    1 + 2 + 3 + 4 +  
Gb|------------------|------------------|------------------|------------------|
Db|------------------|------------------|------------------|------------------|
Ab|-0-0-0-0----------|-3-3-3-3-5-5-5-5--|------------------|------------------|
Eb|---------0-0-0-0--|------------------|-1-1-1-1-1-1-1-1--|-1----------------|
    1 + 2 + 3 + 4 +    1 + 2 + 3 + 4 +    1 + 2 + 3 + 4 +    1 + 2 + 3 + 4 +
Gb|------------------|------------------|------------------|------------------|
Db|------------------|------------------|------------------|------------------|
Ab|-0-0-0-0----------|-3-3-3-3-5-5-5-5--|-0-0-0-0-7-7-7-7--|-3-3-3-3-5-5-5-5--|
Eb|---------0-0-0-0--|------------------|------------------|------------------|
    1 + 2 + 3 + 4 +    1 + 2 + 3 + 4 +    1 + 2 + 3 + 4 +    1 + 2 + 3 + 4 +  
Gb|------------------|------------------|------------------|------------------||
Db|-7-7-7-7----------|------------------|------------------|------------------||
Ab|---------7-7-7-7--|-3-3-3-3-5-5-5-5--|------------------|------------------||
Eb|------------------|------------------|-1-1-1-1-1-1-1-1--|-1----------------||
    1 + 2 + 3 + 4 +    1 + 2 + 3 + 4 +    1 + 2 + 3 + 4 +    1 + 2 + 3 + 4 +

CHORUS

Gb|------------------|------------------|------------------|------------------|
Db|------------------|------------------|------------------|------------------|
Ab|-0-0-0-0----------|-3-3-3-3-5-5-5-5--|-0-0-0-0----------|-3-3-3-3-5-5-5-5--|
Eb|---------0-0-0-0--|------------------|---------0-0-0-0--|------------------|
    1 + 2 + 3 + 4 +    1 + 2 + 3 + 4 +    1 + 2 + 3 + 4 +    1 + 2 + 3 + 4 +  
Gb|------------------|------------------|------------------|------------------|
Db|------------------|------------------|------------------|------------------|
Ab|-0-0-0-0----------|-3-3-3-3-5-5-5-5--|------------------|------------3-----|
Eb|---------0-0-0-0--|------------------|-1-1-1-1-1-1-1-1--|-1----------------|
    1 + 2 + 3 + 4 +    1 + 2 + 3 + 4 +    1 + 2 + 3 + 4 +    1 + 2 + 3 + 4 +
Gb|------------------||
Db|------------------||
Ab|-5--3---5---------||
Eb|------------3-----||
    1 + 2 + 3 + 4 +    
BRIDGE
Gb|------------------|------------------|------------------|------------------|
Db|------------------|------------------|-----------2-2----|-----------2-2----|
Ab|-0-0-0-0-0-0-0-0--|-0-0-0-0-0-0-0-0--|-3-3-3-3-3-----3--|-3-3-3-3-3-----3--|
Eb|------------------|------------------|------------------|------------------|
    1 + 2 + 3 + 4 +    1 + 2 + 3 + 4 +    1 + 2 + 3 + 4 +    1 + 2 + 3 + 4 +   

Gb|------------------|------------------|------------------|------------------|
Db|-3-3-3-3-3-3-3-3--|-5-5-3-3-2-2-3-3--|------------------|------------------|
Ab|------------------|------------------|-0-0-0-0-0-0-0-0--|-0-0-0-0-0-0-0-0--|
Eb|------------------|------------------|------------------|------------------|
    1 + 2 + 3 + 4 +    1 + 2 + 3 + 4 +    1 + 2 + 3 + 4 +    1 + 2 + 3 + 4 +   

Gb|------------------|------------------|------------------|------------------|
Db|-3-3-3-3-3-3-3-3--|-5-5-3-3-2-2-3-3--|------------------|------------------|
Ab|------------------|------------------|-0-0-0-0-0-0-0-0--|-0-0-0-0-0-0-0-0--|
Eb|------------------|------------------|------------------|------------------|
    1 + 2 + 3 + 4 +    1 + 2 + 3 + 4 +    1 + 2 + 3 + 4 +    1 + 2 + 3 + 4 +   

Gb|------------------|------------------|------------------|------------------|
Db|------------------|------------------|------------------|------------------|
Ab|-3-3-3-3-3-3-3-3--|-3-3-3-3-3-3-3-3--|------------------|------------------|
Eb|------------------|------------------|-0-0-0-0-0-0-0-0--|-0-0-0-0-0-0-0-0--|
    1 + 2 + 3 + 4 +    1 + 2 + 3 + 4 +    1 + 2 + 3 + 4 +    1 + 2 + 3 + 4 +  
Gb|------------------|------------------|------------------|------------------|
Db|------------------|------------------|------------------|------------------|
Ab|-0----------------|------------------|------------------|------------------|
Eb|------------------|------------------|------------------|------------------|
    1 + 2 + 3 + 4 +    1 + 2 + 3 + 4 +    1 + 2 + 3 + 4 +    1 + 2 + 3 + 4 +   

Gb|------------------|------------------|------------------|------------------|
Db|------------------|------------------|------------------|------------------|
Ab|------------------|------------------|------------------|------------------|
Eb|------------------|------------------|------------------|------------------|
    1 + 2 + 3 + 4 +    1 + 2 + 3 + 4 +    1 + 2 + 3 + 4 +    1 + 2 + 3 + 4 +   

Gb|------------------|------------------|------------------|------------------|
Db|------------------|------------------|------------------|------------------|
Ab|------------------|------------------|------------------|-------------3///-|
Eb|------------------|------------------|------------------|------------------|
    1 + 2 + 3 + 4 +    1 + 2 + 3 + 4 +    1 + 2 + 3 + 4 +    1 + 2 + 3 + 4 +   

Gb|------------------|------------------|------------------|------------------||
Db|-7-7-7-7-7-7-7-7--|-7-7-7-7-7-7-7-7--|-3-3-3-3-3-3-3-3--|-3\\\-------------||
Ab|------------------|------------------|------------------|------------------||
Eb|------------------|------------------|------------------|------------------||
    1 + 2 + 3 + 4 +    1 + 2 + 3 + 4 +    1 + 2 + 3 + 4 +    1 + 2 + 3 + 4 +   

CHORUS

Gb|------------------|------------------|------------------|------------------|
Db|------------------|------------------|------------------|------------------|
Ab|-0-0-0-0----------|-3-3-3-3-5-5-5-5--|-0-0-0-0----------|-3-3-3-3-5-5-5-5--|
Eb|---------0-0-0-0--|------------------|---------0-0-0-0--|------------------|
    1 + 2 + 3 + 4 +    1 + 2 + 3 + 4 +    1 + 2 + 3 + 4 +    1 + 2 + 3 + 4 +

Gb|------------------|------------------|------------------|------------------|
Db|------------------|------------------|------------------|------------------|
Ab|-0-0-0-0----------|-3-3-3-3-5-5-5-5--|-0-0-0-0----------|-3-3-3-3-5-5-5-5--|
Eb|---------0-0-0-0--|------------------|---------0-0-0-0--|------------------|
    1 + 2 + 3 + 4 +    1 + 2 + 3 + 4 +    1 + 2 + 3 + 4 +    1 + 2 + 3 + 4 +  

Gb|------------------|------------------|------------------|------------------|
Db|------------------|------------------|------------------|------------------|
Ab|-0-0-0-0----------|-3-3-3-3-5-5-5-5--|-0-0-0-0----------|-3-3-3-3-5-5-5-5--|
Eb|---------0-0-0-0--|------------------|---------0-0-0-0--|------------------|
    1 + 2 + 3 + 4 +    1 + 2 + 3 + 4 +    1 + 2 + 3 + 4 +    1 + 2 + 3 + 4 +  
Gb|------------------|------------------|------------------|------------------|
Db|------------------|------------------|------------------|------------------|
Ab|-0-0-0-0----------|-3-3-3-3-5-5-5-5--|------------------|------------3-----|
Eb|---------0-0-0-0--|------------------|-1-1-1-1-1-1-1-1--|-1----------------|
    1 + 2 + 3 + 4 +    1 + 2 + 3 + 4 +    1 + 2 + 3 + 4 +    1 + 2 + 3 + 4 +
Gb|------------------||
Db|------------------||
Ab|-5--3---5---------||
Eb|------------3-----||
    1 + 2 + 3 + 4 +    
OUTRO

Gb|------------------|------------------|------------------|------------------||
Db|------------------|------------------|------------------|------------------||
Ab|-0-~~~------------|------------------|------------------|------------------||
Eb|------------------|------------------|------------------|------------------||
    1 + 2 + 3 + 4 +    1 + 2 + 3 + 4 +    1 + 2 + 3 + 4 +    1 + 2 + 3 + 4 +   


Suggest correction
comments
print report bad tab
1 comment total.
0 reply
RAbassfanatic 10 Jun 24, 2010 09:31 PM

Great tab as usual

guest
You may want to rate the tab now too:
select rating
Wanna post a correction for this tab? Suggest correction