Oops, an error
Loading. Please wait.

Death Blossoms tab

version 1
version 1

Whole song

Interactive

4,936 views 1 this week
3 commentsread comments
1 2 3 4 5
x 3
add to favorites
×
Save as Personal and add changes to this tab that will be seen only by you. Learn more ›
×
You can save this tab as Personal to edit and correct it or add notes. All changes will be seen only by you. Learn more »
launch autoscroll
font size
0
reset
how to read this tab
guitar tuner
backing track
0:00
0:00
edit
Autoscroll
slow
fast
+/-
esc
set tempo
stop
Rise Against - Death Blossoms
Album: No album
Tuning: Standard eADGBE



**** = Palm Mute
/ = Slide


E|----|  Strum this chord 32 times.  
B|----|  
G|-12-|  
D|--x-|
A|-10-|
e|----|

Verse

E|---------------------------|  Repeat 2x I think.
B|---------------------------|
G|---------------------------|
D|-6-6---------4-4-4--4-4-4--|
A|-x-x--6-6-6--2-2-2--4-4-4--|
e|-4-4--3-3-3---------2-2-2--|

Play this before fill:

E|---------------------------|
B|---------------------------|
G|-4-4-4-4-4-4-4-4-----------|
D|-x-x-x-x-x-x-x-x-----------|
A|-2-2-2-2-2-2-2-2-----------|
e|---------------------------|


Fill
E|-------------|  I do not think strumming is tabbed
B|-55-555-44---|  correctly but these are the notes
G|-------------|  played.  Then play the verse again
D|-------------|  palm muted this time and the fill.
A|-------------|
e|-------------|

Chorus (16's,11's,13's,15's, not 1's,6's,3's,and 5's)

E|-----------------------------------------| Repeat.
B|-----------------------------------------|
G|-16-16--13-13-13-11-11-11-15-15-15-15----|
D|--x--x---x--x--x--x--x--x--x--x--x--x----|
A|-14-14--11-11-11--9--9--9-13-13-13-13----|
e|-----------------------------------------|

End Chorus with:

E|------------------|
B|------------------|
G|------------------|
D|-9-9-9-9-9-9-9-9--|
A|-x-x-x-x-x-x-x-x--|
e|-7-7-7-7-7-7-7-7--|

Verse 2

E|--------------------------------------| repeat 2x
B|--------------------------------------|
G|--------------------------------------|
D|-4-4-4-4------------------------------|
A|-2-2-2-2-6-6-6-6-4-4-4-4-8-8-8-8------|
e|---------4-4-4-4-2-2-2-2-6-6-6-6------|
   *******************************
Then play:

E|--------------------|
B|--------------------|
G|--------------------|
D|-9-9-9-9-9-9-9-9----|
A|-x-x-x-x-x-x-x-x----|
e|-7-7-7-7-7-7-7-7----|

(Play Fill)

Verse 2, Part 2
E|----------------------------|
B|----------------------------|
G|-16-16-13-13-11-11-15-15-15-|
D|--x--x--x--x--x--x--x--x--x-|
A|-14-14-11-11--9--9-13-13-13-|
e|----------------------------|

Repeat this pattern as much as needed and then:

E|--------------------|
B|--------------------|
G|--------------------|
D|-9-9-9-9-9-9-9-9----|
A|-x-x-x-x-x-x-x-x----|
e|-7-7-7-7-7-7-7-7----|


(Play Fill)
(Play Chorus)

Pre-Solo

E|----------------------|
B|----------------------|
G|----------------------|
D|-9-11-13-11-9-8-6-4-6-|
A|-9-11-13-11-9-8-6-4-6-|
e|-7--9-11--9-7-6-4-2-4-|

Solo

E|-------------------------------------------------------------------------|
B|0-0-0-0-0-0-0-0-0-2-4-4-4-4-4-4-4-4-225-5-5-5-5-5-5-5-4-4-4-4-4-4-4-4-4-2|
G|-------------------------------------------------------------------------|
D|-------------------------------------------------------------------------|
A|-------------------------------------------------------------------------|
e|-------------------------------------------------------------------------|

E|-------------------------------------------------------------------------|
B|-------------------------------------------------------------------------|
G|-4-4-4-8-8-8-6--4-4-4-8-8-8-6--4-4-4-8-8-8-6--4-4-4-6-6-6-4--------------|
D|-x-x-x-x-x-x-x--x-x-x-x-x-x-x--x-x-x-x-x-x-x--x-x-x-x-x-x-x--------------|
A|-2-2-2-6-6-6-4--2-2-2-6-6-6-4--2-2-2-6-6-6-4--2-2-2-4-4-4-2--------------|
e|-------------------------------------------------------------------------|

E|-------------------------------------------------------------------------|
B|-------------------------------------------------------------------------|
G|-4-4-4-4-6-6-6-6-8-8-8-8-6--4-8-8-8-8-12-12-12-12-15-15-15-15-18-18-18-18|
D|-x-x-x-x-x-x-x-x-x-x-x-x-x--x-x-x-x-x--x--x--x--x--x--x--x--x--x--x--x--x|
A|-2-2-2-2-4-4-4-4-6-6-6-6-4--2-6-6-6-6-10-10-10-10-13-13-13-13-16-16-16-16|
e|-------------------------------------------------------------------------|

E|---|
B|---|
G|---|
D|-9-|
A|-x-|
e|-7-|

Bridge

E|-xxx-x-x-x-|
B|-xxx-x-x-x-|
G|-xxx-x-x-x-|
D|-xxx-x-x-x-|
A|-xxx-x-x-x-|
e|-xxx-x-x-x-|

(Repeat Verse)
(Play Chorus )
(Right before song ends you play the pre solo)

Suggest correction
Creating personal tab
Creating personal tab
You can edit any tab online and save it as your Personal.

You can edit, replace or remove any tab part or add personal notes – all changes will be seen only by you.

Personal tabs can be accessed anytime from any device, even offline.
Learn more »
Give kudos to tab author, rate the tab!
1 2 3 4 5
comments
print report bad tab
3 comments total.
0 reply
Rg-350DMX *SD* 92 Aug 19, 2009 04:09 PM

dont know if you know this but ALL rise against songs are in Eb (half step down) no matter what song they have always wrote,played,recorded in half step down so opinion for a better tab would to do it in half step down

0 reply
joe560128 10 Nov 10, 2010 11:29 AM

you, sir, are wrong. most if not all of their first album is in E and i think some of appeal to reason. siren song and sufferer are all Eb though i think

0 reply
rouge_sheep 31 Nov 21, 2010 03:14 PM

if you play it in Eb you can add an open low Eb to the octaves at the beginning every now and then, just strum it lightly. I can't work out if its there or just bass but it sounds good. And I play the first part of the solo as octaves with root on the A string. Again, not sure if thats how it's done but it sounds good.
Can't get the verse to sound right but thats probably just the way I'm playing it.
4*

guest
You may want to rate the tab now too:
select rating
Wanna post a correction for this tab? Suggest correction