Oops, an error
Loading. Please wait.
We have an official Death Blossoms tab made by UG professional guitarists. Check out the tab »
×
820 views 3 this week
2 commentsread comments
1 2 3 4 5
2 more votes to show rating
add to favorites
×
Save as Personal and add changes to this tab that will be seen only by you. Learn more ›
×
You can save this tab as Personal to edit and correct it or add notes. All changes will be seen only by you. Learn more »
launch autoscroll
font size
0
reset
how to read this tab
guitar tuner
backing track
0:00
0:00
edit
Autoscroll
slow
fast
+/-
esc
set tempo
stop
Rise Against - Death Blossoms
Album: No album, but featured on the video game Guitar Hero World Tour
Tuning: Standard eADGBE

Because there are not any tabs for this song and 
since I really wanted to learn it, I had to figure 
it out by myself.  It probably is not 100% correct 
but I tried my best to figure out the notes for the song.  
And go easy on me OKAY? I've only been playing 
guitar for a year now!!!!

**** = Palm Mute
/ = Slide

Intro

E|----|  Strum this chord 31 times.  Its 31 because when you play it       
B|----|  the 16th time you play it as a quarter note and not an eighth note,
G|-12-|  31 times.  (ALL OTHERS ARE EIGHTH NOTES THOUGH)
D|--x-|
A|-10-|
e|----|

Verse

E|-------------------------------------------------------------------|
B|-------------------------------------------------------------------|
G|-------------------------------------------------------------------|
D|-9-9-x-4-4-4-x-6-6-6-x-8-8-8-x-9-9-9-x-4-4-4-x-6-6-6-x-8-8-8-------|
A|-x-x-x-x-x-x-x-x-x-x-x-x-x-x-x-x-x-x-x-x-x-x-x-x-x-x-x-x-x-x-------|
e|-7-7-x-2-2-2-x-4-4-4-x-6-6-6-x-7-7-7-x-2-2-2-x-4-4-4-x-6-6-6-------|
   
REPEAT THE ABOVE AS MUCH AS NEEDED UNTIL THE FOLLOWING IS PLAYED:

Fill 
E|-------------|  I do not think strumming is tabbed
B|-55-555-44-2-|  correctly but these are the notes 
G|-------------|  played.  Then play the verse again
D|-------------|  palm muted this time and the fill.
A|-------------|
e|-------------|

Chorus (16's,11's,13's,15's, not 1's,6's,3's,and 5's)

E|-------------------------------------------------------------------|
B|-------------------------------------------------------------------|
G|-16-16--11-11-11-13-13-13-15-15-15-15-16-16-16-11-11-11-13-13-13---|
D|--x--x--x--x--x---x--x--x--x--x--x--x--x--x--x--x--x--x--x--x--x---|
A|-14-14--9--9--9--11-11-11-13-13-13-13-14-14-14--9--9--9-11-11-11---|
e|-------------------------------------------------------------------|
                                       
E|-------------------------------------------------------------------|   
B|-------------------------------------------------------------------|    
G|-15-15-15-15-16-16-16-11-11-11-11-13-13-13-15-15-15-15-9-9-9-9-9-9-|
D|--x--x--x--x--x--x--x--x--x--x--x--x--x--x--x--x--x--x-x-x-x-x-x-x-|
A|-13-13-13-13--14-14-14-9--9--9--9-11-11-11-13-13-13-13-7-7-7-7-7-7-|
e|-------------------------------------------------------------------|

E|------|
B|------|
G|-9-9--|
D|-x-x--|
A|-7-7--|
e|------|

Verse 2 

E|--------------------------------------------------------------------|
B|--------------------------------------------------------------------|
G|--------------------------------------------------------------------|
D|-9-9-9-9-4-4-4-4-6-6-6-6-8-8-8-8-9-9-9-9-4-4-4-4-6-6-6-6-8-8-8-8----|
A|-x-x-x-x-x-x-x-x-x-x-x-x-x-x-x-x-x-x-x-x-x-x-x-x-x-x-x-x-x-x-x-x----|
e|-7-7-7-7-2-2-2-2-4-4-4-4-6-6-6-6-7-7-7-7-2-2-2-2-4-4-4-4-6-6-6-6----|
   *************************************************************** 
E|--------------------|
B|--------------------|
G|--------------------|
D|-9-9-9-9-9-9-9-9----|
A|-x-x-x-x-x-x-x-x----|
e|-7-7-7-7-7-7-7-7----|
  
(Play Fill)

Verse 2, Part 2
E|-----------------------------|  
B|-----------------------------|
G|-16-16-11-11--13-13-15-15-15-|
D|--x--x--x--x---x--x--x--x--x-|
A|-14-14--9--9--11-11-13-13-13-|
e|-----------------------------|

Repeat this pattern as much as needed and then:

E|--------------------|
B|--------------------|
G|--------------------|
D|-9-9-9-9-9-9-9-9----|
A|-x-x-x-x-x-x-x-x----|
e|-7-7-7-7-7-7-7-7----|


(Play Fill)
(Play Chorus)

Pre-Solo

E|----------------------|
B|----------------------|
G|----------------------|
D|-9-11-13-11-9-8-6-4-6-|
A|-9-11-13-11-9-8-6-4-6-|
e|-7--9-11--9-7-6-4-2-4-|

Solo

E|-------------------------------------------------------------------------|
B|0-0-0-0-0-0-0-0-0-2-4-4-4-4-4-4-4-4-225-5-5-5-5-5-5-5-4-4-4-4-4-4-4-4-4-2|
G|-------------------------------------------------------------------------|
D|-------------------------------------------------------------------------|
A|-------------------------------------------------------------------------|
e|-------------------------------------------------------------------------|

E|-------------------------------------------------------------------------|
B|-------------------------------------------------------------------------|
G|-4-4-4-8-8-8-6--4-4-4-8-8-8-6--4-4-4-8-8-8-6--4-4-4-6-6-6-4--------------|
D|-x-x-x-x-x-x-x--x-x-x-x-x-x-x--x-x-x-x-x-x-x--x-x-x-x-x-x-x--------------|
A|-2-2-2-6-6-6-4--2-2-2-6-6-6-4--2-2-2-6-6-6-4--2-2-2-4-4-4-2--------------|
e|-------------------------------------------------------------------------|

E|-------------------------------------------------------------------------|
B|-------------------------------------------------------------------------|
G|-4-4-4-4-6-6-6-6-8-8-8-8-6--4-8-8-8-8-12-12-12-12-15-15-15-15-18-18-18-18|
D|-x-x-x-x-x-x-x-x-x-x-x-x-x--x-x-x-x-x--x--x--x--x--x--x--x--x--x--x--x--x|
A|-2-2-2-2-4-4-4-4-6-6-6-6-4--2-6-6-6-6-10-10-10-10-13-13-13-13-16-16-16-16|
e|-------------------------------------------------------------------------|

E|---|
B|---|
G|---|
D|-9-|
A|-x-|
e|-7-|

Bridge

E|-xxx-x-x-x-|
B|-xxx-x-x-x-|
G|-xxx-x-x-x-|
D|-xxx-x-x-x-|
A|-xxx-x-x-x-|
e|-xxx-x-x-x-|

(Repeat Verse)
(Play Chorus )
(Right before song ends you play the pre solo)

Please rate this tab good! I think its a really good tab!!! 
Please take note that ive only been playing 
for a year and I figured the song out by ear!!!!!! 


            
            
Suggest correction
Creating personal tab
Creating personal tab
You can edit any tab online and save it as your Personal.

You can edit, replace or remove any tab part or add personal notes – all changes will be seen only by you.

Personal tabs can be accessed anytime from any device, even offline.
Learn more »
Give kudos to tab author, rate the tab!
1 2 3 4 5
comments
print report bad tab
2 comments total.
0 reply
SashaRockinOut 79 Jul 29, 2009 10:29 PM

The solo is fine... but the rest is kinda iffy, but w/e, it's not like my tab is any better

0 reply
chromaticvision 4,067 Jul 31, 2009 02:06 PM

this really isn't right. the chords aren't power chords.

guest
You may want to rate the tab now too:
select rating
Wanna post a correction for this tab? Suggest correction