Oops, an error
Loading. Please wait.

Dirt And Roses bass

version 1
version 1

Whole song

Interactive

1,655 views 1 this week
1 commentread comment
1 2 3 4 5
x 4
add to favorites
×
Save as Personal and add changes to this tab that will be seen only by you. Learn more ›
×
You can save this tab as Personal to edit and correct it or add notes. All changes will be seen only by you. Learn more »
launch autoscroll
font size
0
reset
guitar tuner
edit
Autoscroll
slow
fast
+/-
esc
set tempo
stop
Dirt And Roses - Rise Against
Tabbed By Kino94

Intro:          x3                          x1
Gb-------------------------------------|-------------------------|
Db-------------------------------------|-------------------------|play this at the
Ab---0-0-0-0-0-0-0-0-8-8-8-8-7-7-7-7---|---0-0-0-0-0-0-0-0-8-8---|last time of the intro.
Eb-------------------------------------|-------------------------|

Verse:          x3                                      x1
Gb-------------------------------------|-------------------------------------|
Db-------------------------------------|-------------------------------------|
Ab---0-0-0-0-0-0-0-0-8-8-8-8-7-7-7-7---|---3-3-3-3-3-3-3-3-7-7-7-7-7-7-7-7---|x2
Eb-------------------------------------|-------------------------------------|

Chorus:
Gb-------------------------------------------------------------------|
Db-------------------------------------------------------------------|
Ab---0-0-0-0-0-0-0-0-0-0-0-0-0-0-0-0---------------------------------|
Eb-----------------------------------1-1-1-1-1-1-1-1-1-1-1-1-1-1-1-1-|

-------------------------------------------------------------------|
-------------------------------------------------------------------|
---3-3-3-3-3-3-3-3-3-3-3-3-3-3-3-3---------------------------------|x2
-----------------------------------0-0-0-0-0-0-0-0-0-0-0-0-0-0-0-0-|

Verse:          x3                                      x1
Gb-------------------------------------|-------------------------------------|
Db-------------------------------------|-------------------------------------|
Ab---0-0-0-0-0-0-0-0-8-8-8-8-7-7-7-7---|---3-3-3-3-3-3-3-3-7-7-7-7-7-7-7-7---|
Eb-------------------------------------|-------------------------------------|

                 x3                                x1
Gb-------------------------------------|-----------------------|
Db-------------------------------------|-----------------------|
Ab---0-0-0-0-0-0-0-0-8-8-8-8-7-7-7-7---|---3-3-3-3-3-3-3-3-7---|
Eb-------------------------------------|-----------------------|

Chorus:
Gb-------------------------------------------------------------------|
Db-------------------------------------------------------------------|
Ab---0-0-0-0-0-0-0-0-0-0-0-0-0-0-0-0---------------------------------|
Eb-----------------------------------1-1-1-1-1-1-1-1-1-1-1-1-1-1-1-1-|

-------------------------------------------------------------------|
-------------------------------------------------------------------|
---3-3-3-3-3-3-3-3-3-3-3-3-3-3-3-3---------------------------------|x2
-----------------------------------0-0-0-0-0-0-0-0-0-0-0-0-0-0-0-0-|

Bridge:
        First Part
Gb------------------------|
Db------------------------|
Ab---12-12-7-7-8-10-8-7---|x4
Eb------------------------|
          x3                   x1
Gb------------------|---------------------|
Db------------------|---------------------|
Ab---0-3-8-10-8-7---|---3-3-3-3-7-7-7-7---|x2
Eb------------------|---------------------|

Gb---------------------------------------------------------------------|
Db---------------------------------------------------------------------|
Ab---8-8-8-8-8-8-8-8-7-7-7-7-3-3-3-3-0-0-0-0-0-0-0-0-------------------|x2
Eb---------------------------------------------------3-3-3-3-3-3-3-3---|

Gb--------------------------------------------------------|
Db--------------------------------------------------------|
Ab---8---------------7-------3-------0--------------------|x1
Eb---------------------------------------------------3----|

Gb---------------------------------------|
Db---------------------------------------|
Ab---8---------------7-------3-------0---|x1
Eb---------------------------------------|
                   x3                               x1
Gb-------------------------------------|-------------------------|
Db-------------------------------------|-------------------------|
Ab---0-0-0-0-0-0-0-0-8-8-8-8-7-7-7-7---|---0-0-0-0-0-0-0-0-8-8---|x1
Eb-------------------------------------|-------------------------|

Chorus:
Gb-------------------------------------------------------------------|
Db-------------------------------------------------------------------|
Ab---0-0-0-0-0-0-0-0-0-0-0-0-0-0-0-0---------------------------------|
Eb-----------------------------------1-1-1-1-1-1-1-1-1-1-1-1-1-1-1-1-|

-------------------------------------------------------------------|
-------------------------------------------------------------------|
---3-3-3-3-3-3-3-3-3-3-3-3-3-3-3-3---------------------------------|x3
-----------------------------------0-0-0-0-0-0-0-0-0-0-0-0-0-0-0-0-|

Play this after the last chorus:
Gb-----------------------------------------------------------------------|
Db-----------------------------------------------------------------------|
Ab---0-0-0-0-0-0-0-0-0-0-0-0-0-0-0-0---------------------------------3---|
Eb-----------------------------------1-1-1-1-1-1-1-1-1-1-1-1-1-1-1-1-----|

            
            
Suggest correction
Creating personal tab
Creating personal tab
You can edit any tab online and save it as your Personal.

You can edit, replace or remove any tab part or add personal notes – all changes will be seen only by you.

Personal tabs can be accessed anytime from any device, even offline.
Learn more »
comments
print report bad tab
1 comment total.
0 reply
BlueKnife 585 Jul 27, 2012 04:46 PM

Cool! Thanks dude.

guest
You may want to rate the tab now too:
select rating
Wanna post a correction for this tab? Suggest correction