Oops, an error
Loading. Please wait.

Disparity By Design bass

version 2
version 2

Whole song

427 views 1 this week
no commentswrite comment
1 2 3 4 5
2 more votes to show rating
add to favorites
×
Save as Personal and add changes to this tab that will be seen only by you. Learn more ›
×
You can save this tab as Personal to edit and correct it or add notes. All changes will be seen only by you. Learn more »
launch autoscroll
font size
0
reset
guitar tuner
edit
Autoscroll
slow
fast
+/-
esc
set tempo
stop
0:10
F#|------------------------------------------------------------------|
C#|o-----------------------------------------------------------------| 
G#|o---------------------------------5-----0-----5-------7---7---7---|
D#|--2-----0-----2-------5---5---5-----------------------------------|

F#|------------------------------------------------------------------|
C#|-----------------------------------------------------------------o| 
G#|---------------------------------5---5-5---5-5---2---2-2---2-2---o|
D#|-2-----0-----2-------5---5---5------------------------------------|

0:22
F#|------------------------------------------------13-----14-14-14-13-13-13-14-14-|
C#|---------------------------------11-11-11-11-11--------------------------------| 
G#|-7---7-7---7-7---4---4-4---4-4-------------------------------------------------| 
D#|-------------------------------------------------------------------------------|

0:25
F#|-----------------------------------------------------------------|
C#|-----------------------------------------------------------------|
G#|---------------------------------5---5-5---5-5---5---5-5---5-5---|
D#|-2---2-2---2-2---2---2-2---2-2-----------------------------------|

F#|-----------------------------------------------------------------|
C#|-----------------------------------------------------------------|
G#|-2---2-2---2-2---2---2-2---2-2---4---4-4---4-4---4---4-4---4-4---|
D#|-----------------------------------------------------------------|

F#|-----------------------------------------------------------------|
C#|-----------------------------------------------------------------|
G#|---------------------------------5---5-5---5-5---5---5-5---5-5---|
D#|-2---2-2---2-2---2---2-2---2-2-----------------------------------|

F#|-----------------------------------------------------------------|
C#|-----------------------------------------------------------------|
G#|-7---7-7---7-7---7---7-7---7-7---7---7-7---7-7---4-------7-------|
D#|-----------------------------------------------------------------|

0:38
F#|-----------------------------------------------------------------|
C#|-----------------------------------------------------------------|
G#|-9---9-9---9-9---9---9-9---9-9---5---5-5---5-5---5---5-5---5-5---|
D#|-----------------------------------------------------------------|

F#|-----------------------------------------------------------------|
C#|-----------------------------------------------------------------|
G#|-2---2-2---2-2---2---2-2---2-2---4---4-4---4-4----4----2----0----|
D#|-----------------------------------------------------------------|

C#|-----------------------------------------------------------------|
G#|---------------------------------5---5-5---5-5---5---5-5---5-5---|
D#|-2---2-2---2-2---2---2-2---2-2-----------------------------------|

F#|-----------------------------------------------------------------|
C#|-----------------------------------------------------------------|
G#|-7---7-7---7-7---7---7-7---7-7---7---7-7---7-7---7---7-7---7-7---|
D#|-----------------------------------------------------------------|

0:50
F#|-----------------------------------------------------------------|
C#|-----------------------------------------------------------------|
G#|-4---4-4---4-4---5---5-5---5-5---2---2-2---2-2---4---4-4---4-4---|
D#|-----------------------------------------------------------------|

F#|-----------------------------------------------------------------|
C#|-----------------------------------------------------------------|
G#|-----4-----4---------5-----5---------2-----2---------4-----2-----|
D#|-----------------------------------------------------------------|

F#|-----------------------------------------------------------------|
C#|-----------------------------------------------------------------|
G#|-4---4-4---4-4---5---5-5---5-5---2---2-2---2-2---4---4-4---4-4---|
D#|-----------------------------------------------------------------|

F#|-----------------------------------------------------------------|
C#|------6----------7---------7-------------------------------------|
G#|-4---------4----------5----------7---7-7---7-7---7---7-7---7-7---|
D#|-----------------------------------------------------------------|

F#|-----------------------------------------------------------------|
C#|-----------------------------------------------------------------|
G#|-5---5-5---5-5---5---5-5---5-5---0---0-0---0-0---7-7-7-7-7-------|
D#|-----------------------------------------------------------------|

1:06
F#|-----------------------------------------------------------------|
C#|-----------------------------------------------------------------|
G#|---------------------------------4---4-4---4-4---4---4-4---4-4---|
D#|-2---2-2---2-2---2---2-2---2-2-----------------------------------|

F#|-----------------------------------------------------------------|
C#|-----------------------------------------------------------------|
G#|-5---5-5---5-5---5---5-5---5-5---0---0-0---0-0---7-7-7-7-7-7-7-7-|
D#|-----------------------------------------------------------------|

F#|-----------------------------------------------------------------|
C#|-----------------------------------------------------------------|
G#|---------------------------------4---4-4---4-4---4---4-4---4-4---|
D#|-2---2-2---2-2---2---2-2---2-2-----------------------------------|

F#|------------------------------------------------------------------|
C#|------------------------------------------------------------------|
G#|-5---5-5---5-5---5---5-5---5-5---7---7-7---7-7---7-/-19-7-7-7-7-7-|
D#|------------------------------------------------------------------|

1:18
F#|-----------------------------------------------------------------|
C#|-----------------------------------------------------------------| 
G#|---------------------------------5-----0-----5-------7---7---7---|
D#|-2-----0-----2-------5---5---5-----------------------------------|

F#|-----------------------------------------------------------------|
C#|-----------------------------------------------------------------| 
G#|---------------------------------7-------------------------------|
D#|-2-----0-----2-------5---5---5-----------------------------------|

1:24
F#|-----------------------------------------------------------------|
C#|-----------------------------------------------------------------|
G#|---------------------------------5---5-5---5-5---5---5-5---5-5---|
D#|-2---2-2---2-2---2---2-2---2-2-----------------------------------|

F#|-----------------------------------------------------------------|
C#|-----------------------------------------------------------------|
G#|-2---2-2---2-2---2---2-2---2-2---4---4-4---4-4---4---7---9---7---|
D#|-----------------------------------------------------------------|

F#|-----------------------------------------------------------------|
C#|-----------------------------------------------------------------|
G#|-9---9-9---9-9---9---9-9---9-9---5---5-5---5-5---5---5-5---5-5---|
D#|-----------------------------------------------------------------|

F#|-----------------------------------------------------------------|
C#|-----------------------------------------------------------------|
G#|-7---7-7---7-7---7---7-7---7-7---7---7-7---7-7---7-------2-------|
D#|-----------------------------------------------------------------|

1:36
F#|-----------------------------------------------------------------|
C#|-----------------------------------------------------------------|
G#|-4---4-4---4-4---5---5-5---5-5---2---2-2---2-2---4---4-4---4-4---|
D#|-----------------------------------------------------------------|

F#|-----------------------------------------------------------------|
C#|-----------------------------------------------------------------|
G#|-----4-----4---------5-----5---------2-----2---------4-----2-----|
D#|-----------------------------------------------------------------|

F#|-----------------------------------------------------------------|
C#|-----------------------------------------------------------------|
G#|-4---4-4---4-4---5---5-5---5-5---2---2-2---2-2---4---4-4---4-4---|
D#|-----------------------------------------------------------------|

F#|-----------------------------------------------------------------|
C#|------6----------7---------7-------------------------------------|
G#|-4---------4----------5----------7---7-7---7-7---7---7-7---7-7---|
D#|-----------------------------------------------------------------|

F#|-----------------------------------------------------------------|
C#|-----------------------------------------------------------------|
G#|-5---5-5---5-5---5---5-5---5-5---0---0-0---0-0---7---0---4/16----|
D#|-----------------------------------------------------------------|

1:52
F#|------------------------------------------------------------------|
C#|o-----------------------------------------------------------------|
G#|o---------------------------------4---4-4---4-4---4---4-4---4-4---|
D#|--2---2-2---2-2---2---2-2---2-2-----------------------------------|

F#|-----------------------------------------------------------------|
C#|-----------------------------------------------------------------|
G#|-5---5-5---5-5---5---5-5---5-5---0---0-0---0-0---7-7-7-7-7-7-7-7-|
D#|-----------------------------------------------------------------|

F#|-----------------------------------------------------------------|
C#|-----------------------------------------------------------------|
G#|---------------------------------4---4-4---4-4---4---4-4---4-4---|
D#|-2---2-2---2-2---2---2-2---2-2-----------------------------------|

F#|-------------------------------------------------------------------|
C#|------------------------------------------------------------------o|
G#|-5---5-5---5-5---5---5-5---5-5---7---7-7---7-7---7-/-19-7-7-7-7-7-o|
D#|-------------------------------------------------------------------|

2:16
F#|------------------------------------------------------------------|
C#|o-----------------------------------------------------------------|
G#|o---------------------------------4---4---4---4---4---4---4---4---|
D#|--2---2---2---2---2---2---2---2-----------------------------------|

F#|------------------------------------------------------------------|
C#|-----------------------------------------------------------------o| 
G#|-5---5---5---5---5---5---5---5---7---7---7---7---7---7---7---7---o| 
D#|------------------------------------------------------------------|

2:28
F#|-----------------------------------------------------------------|
C#|-----------------------------------------------------------------|
G#|---------------------------------4---4---4---4---4---4---4---2---|
D#|-2---2---2---2---2---2---2---0-----------------------------------|

F#|-----------------------------------------------------------------|
C#|-----------------------------------------------------------------| 
G#|-5---5---5---5---5---5---5---4---7---7---7---7---7---7---5---4---| 
D#|-----------------------------------------------------------------|

F#|-----------------------------------------------------------------|
C#|-----------------------------------------------------------------|
G#|---------------------------------4---4---4---4---4---4---4---2---|
D#|-2---2---2---2---2---2---2---0-----------------------------------|

F#|-----------------------------------------------------------------|
C#|-----------------------------------------------------------------| 
G#|-5---5---5---5---5---5---5---4---7---7---7---7---7---7---7---7---| 
D#|-----------------------------------------------------------------|

2:41
F#|-----------------------------------------------------------------|
C#|-----------------------------------------------------------------|
G#|-5---------------------------------------------------------------|
D#|---------------------------------0-------------------------------|

F#|-----------------------------------------------------------------|
C#|---------------------------------4---4---2-----4-----2---0-------|
G#|-------------------------------------------------------------4---|
D#|-2---2---0-----2-----0---2---0-----------------------------------|

F#|-----------------------------------------------------------------|
C#|-----------------------------------------------------------------|
G#|-5---------------------------------------------------------------|
D#|---------------------------------0-------------------------------|

F#|-----------------------------------------------2-----------------|
C#|-------------------------2-------4-------2-----------2---0-------|
G#|-------------------------------------------------------------4---|
D#|-2---2---2---2---2---2-------------------------------------------|

2:53
F#|-----------------------------------------------------------------|
C#|-----------------------------------------------------------------|
G#|-5---5---5---5---5---5---5---5-----------------------------------|
D#|---------------------------------0---0---0---0---0---0---0---0---|

F#|-----------------------------------------------------------------|
C#|---------------------------------0-------0-----2-----2---0-------|
G#|-------------------------------------4-----------------------4---|
D#|-2---2---2---2---2---2---2---2-----------------------------------|

F#|-----------------------------------------------------------------|
C#|-----------------------------------------------------------------|
G#|-5---5---5---5---5---5---5---5---7---7---7---7---7---7---7---7---|
D#|-----------------------------------------------------------------|

3:02
F#|-----------------------------------------------------------------|
C#|-----------------------------------------------------------------|
G#|---------------------------------4---4---4---4---4---4---4---4---|
D#|-2---2---2---2---2---2---2---2-----------------------------------|

F#|-----------------------------------------------------------------|
C#|-----------------------------------------------------------------| 
G#|-5---5---5---5---5---5---5---5---0---0---0---0---7---7---7---7---| 
D#|-----------------------------------------------------------------|

F#|-----------------------------------------------------------------|
C#|-----------------------------------------------------------------|
G#|---------------------------------4---4---4---4---4---4---4---4---|
D#|-2---2---2---2---2---2---2---2-----------------------------------|

F#|-----------------------------------------------------------------|
C#|-----------------------------------------------------------------| 
G#|-5---5---5---5---5---5---5---5---7---7---7---7---7---------------| 
D#|-----------------------------------------------------------------|

3:15
F#|-----------------------------------------------------------------|
C#|-----------------------------------------------------------------|
G#|---------------------------------4---4-4---4-4---4---4-4---4-4---|
D#|-2---2-2---2-2---2---2-2---2-2-----------------------------------|

F#|-----------------------------------------------------------------|
C#|-----------------------------------------------------------------|
G#|-5---5-5---5-5---5---5-5---5-5---0---0-0---0-0---7-7-7-7-7-7-7-7-|
D#|-----------------------------------------------------------------|

F#|-----------------------------------------------------------------|
C#|-----------------------------------------------------------------|
G#|---------------------------------4---4-4---4-4---4---4-4---4-4---|
D#|-2---2-2---2-2---2---2-2---2-2-----------------------------------|

F#|------------------------------------------------------------------|
C#|------------------------------------------------------------------|
G#|-5---5-5---5-5---5---5-5---5-5---7---7-7---7-7---7-/-19-7-7-7-7-7-|
D#|------------------------------------------------------------------|

F#|-----------------------------------------------------------------|
C#|-----------------------------------------------------------------|
G#|---------------------------------4---4-4---4-4---4---4-4---4-4---|
D#|-2---2-2---2-2---2---2-2---2-2-----------------------------------|

F#|-----------------------------------------------------------------|
C#|-----------------------------------------------------------------|
G#|-5---5-5---5-5---5---5-5---5-5---0---0-0---0-0---7-7-7-7-7-7-7-7-|
D#|-----------------------------------------------------------------|

F#|-----------------------------------------------------------------|
C#|-----------------------------------------------------------------|
G#|---------------------------------4---4-4---4-4---4---4-4---4-4---|
D#|-2---2-2---2-2---2---2-2---2-2-----------------------------------|

F#|-----------------------------------------------------------------|
C#|-----------------------------------------------------------------|
G#|-5---5-5---5-5---5---5-5---5-5---7---------------7---------------|
D#|-----------------------------------------------------------------|

F#|--------------------------------|
C#|--------------------------------| 
G#|--------------------------------| 
D#|-2------------------------------|
Tabbed by Dave Vucko

            
            
Suggest correction
Creating personal tab
Creating personal tab
You can edit any tab online and save it as your Personal.

You can edit, replace or remove any tab part or add personal notes – all changes will be seen only by you.

Personal tabs can be accessed anytime from any device, even offline.
Learn more »
Give kudos to tab author, rate the tab!
1 2 3 4 5
comments
print report bad tab
guest
You may want to rate the tab now too:
select rating
Wanna post a correction for this tab? Suggest correction