Oops, an error
Loading. Please wait.

Drones bass

version 1
version 1

Whole song

Interactive

11,012 views 1 this week
6 commentsread comments
1 2 3 4 5
x 7
add to favorites
×
Save as Personal and add changes to this tab that will be seen only by you. Learn more ›
×
You can save this tab as Personal to edit and correct it or add notes. All changes will be seen only by you. Learn more »
launch autoscroll
font size
0
reset
guitar tuner
edit
Autoscroll
slow
fast
+/-
esc
set tempo
stop
Author
                               Drones


                                                          Rise Against
Bass Guitar


tabbed by jetfuel495

UPDATE: This is a very basic skeleton of the bass in the song that I did a long time 
so there ARE things that are missing in here. But most of that can be picked out by ear. 
one day I'll add it in myself.


    Main Riff/Verse

      E  E  E  E  E  E  E  E     E  E  E  E  E  E  Q
F#||--------------------------|-------------------------|
C#||--------------------5--5--|-------------------------|
G#||--------5--7--------------|--------5--7--------7----|
D#||--0--0--------0--0--------|--0--0--------0--0-------|


Chorus

  E  E  E  E  E  E  E  E     E  E  E  E  E  E  E  E
--------------------------|--------------------------|
--------------------------|--------------------------|
--3--3--3--3--3--3--3--3--|--3--3--3--3--3--3--3--3--|
--------------------------|--------------------------|


  E  E  E  E  E  E  E  E     E  E  E  E  E  E  E  E
--------------------------|--------------------------|
--------------------------|--------------------------|
--5--5--5--5--5--5--5--5--|--5--5--5--5--5--5--5--5--|
--------------------------|--------------------------|


  E  E  Q    E  E  Q       E  E  Q    E  E  Q
------------------------|------------------------|
------------------------|------------------------|
--5--0--2----5--0--2----|--5--0--2----5--0--2----|
------------------------|------------------------|


  Q    E  E  Q    Q       H        Q     Q
-----------------------|-----------------------|
-----------------------|-----------------------|
-----------------------|-----------0----(0)----|
--0----0--0--2----2----|--3--------------------|


  E  E  E  E  E  E  E  E     E  E  E  E  E  E  E  E
--------------------------|--------------------------|
--------------------------|--------------------------|
--3--3--3--3--3--3--3--3--|--3--3--3--3--3--3--3--3--|
--------------------------|--------------------------|


  E  E  E  E  E  E  E  E     E  E  E  E  E  E  E  E
--------------------------|--------------------------|
--------------------------|--------------------------|
--5--5--5--5--5--5--5--5--|--5--5--5--5--5--5--5--5--|
--------------------------|--------------------------|


  E  E  Q    E  E  Q       E  E  Q    E  E  Q
------------------------|------------------------|
------------------------|------------------------|
--5--0--2----5--0--2----|--5--0--2----5--0--2----|
------------------------|------------------------|

                                                  pre-bridge
  Q    E  E  Q    Q       H        Q     Q        W
-----------------------|-----------------------|-------------------|
-----------------------|-----------------------|--5----------------|
-----------------------|-----------0----(0)----|--3----------------|
--0----0--0--2----2----|--3--------------------|-------------------|

  bridge
  Q    Q    Q    Q       Q    Q    Q    Q       Q    Q    Q    Q
----------------------|----------------------|----------------------|
----------------------|----------------------|----------------------|
----------------------|----------------------|----------------------|
--0----0----0----0----|--0----0----0----0----|--3----3----3----3----|


  Q    Q    Q    Q       Q    Q    Q    Q       Q    Q    Q    Q
----------------------|----------------------|-----------------------|
----------------------|----------------------|-----------------------|
----------------------|--0----0----0----0----|--0----0----0----0\----|
--3----3----3----3----|----------------------|-----------------------|


  Q    Q    Q    Q       Q    Q    Q    Q       Q    Q    Q    Q
----------------------|----------------------|----------------------|
----------------------|----------------------|----------------------|
----------------------|----------------------|----------------------|
--0----0----0----0----|--0----0----0----0----|--0----0----0----0----|


  Q    Q    Q    Q       Q    Q    Q    Q       Q    Q    Q    Q
----------------------|----------------------|----------------------|
----------------------|----------------------|----------------------|
----------------------|----------------------|----------------------|
--0----0----0----0----|--3----3----3----3----|--3----3----3----3----|


  Q    Q    Q    Q       Q    Q    Q    Q        Q    Q    Q    Q
----------------------|-----------------------|----------------------|
----------------------|-----------------------|----------------------|
--0----0----0----0----|--0----0----0----0\----|----------------------|
----------------------|-----------------------|--0----0----0----0----|


  Q    Q    Q    Q       W                    W
----------------------|--------------------|-------------------|
----------------------|--------------------|-------------------|
----------------------|--------------------|-------------------|
--0----0----0----0----|--0/----------------|--L----------------|


  E  E  E  E  E  E  E  E     E  E  E  E  E  E  E  E
--------------------------|--------------------------|
--------------------------|--------------------------|
--------------------------|--------------------------|
--0--0-----0--0--0-----0--|--0--0-----0--0--0--0--3--|


  E  E  E  E  E  E  E  E     E  E  E  E  E  E  E  E
--------------------------|--------------------------|
--------------------------|--------------------------|
--------------------------|--------------------------|
--3--3-----3--3--3-----3--|--3--3-----3--3--3--3--5--|


  E  E  E  E  E  E  E  E     E  E  E  E  E  E  E  E
--------------------------|--------------------------|
--------------------------|--------------------------|
--------------------------|--------------------------|
--5--5-----5--5--5-----5--|--5--5-----5--5--5--5--3--|


  E  E  E  E  E  E  E  E     E  E  E  E  E  E  E  E
--------------------------|--------------------------|
--------------------------|--------------------------|
--------------------------|--------------------------|
--0--0-----0--0--0-----0--|--0--0-----0--0--0--0--3--|


  W                   E  E  E  E  E  E  E  E
-------------------|--------------------------|
-------------------|--------------------------|
-------------------|--------------------------|
--0----------------|--0--0--0--0--0--0--0--0--|


  E  E  E  E  E  E  E  E     E  E  E  E  E  E  E  E
--------------------------|--------------------------|
--------------------------|--------------------------|
--------------------------|--------------------------|
--0--0--0--0--0--0--0--0--|--0--0--0--0--0--0--0--0--|


  E  E  E  E  E  E  E  E     E  E  E  E  E  E  E  E
--------------------------|--------------------------|
--------------------------|--------------------------|
--------------------------|--------------------------|
--0--0--0--0--0--0--0--0--|--0--0--0--0--0--0--0--0--|


  E  E  E  E  E  E  E  E     E  E  E  E  E  E  Q
--------------------------|--------------------------|
--------------------------|--------------------------|
--------------------------|--------------------------|
--0--0--0--0--0--0--0--0--|--0--0--0--0--0--0--0\----|

  Outro
  E  E  E  E  E  E  E  E     E  E  E  E  E  E  Q
--------------------------|-------------------------|
--------------------5--5--|-------------------------|
--------5--7--------------|--------5--7--------7----|
--0--0--------0--0--------|--0--0--------0--0-------|


  E  E  E  E  E  E  E  E     E  E  E  E  E  E  Q
--------------------------|-------------------------|
--------------------5--5--|-------------------------|
--------5--7--------------|--------5--7--------7----|
--0--0--------0--0--------|--0--0--------0--0-------|


  E  E  E  E  E  E  E  E     E  E  E  E  E  E  Q
--------------------------|-------------------------|
--------------------5--5--|-------------------------|
--------5--7--------------|--------5--7--------7----|
--0--0--------0--0--------|--0--0--------0--0-------|


  W                   W
-------------------|-------------------||
-------------------|-------------------||
-------------------|-------------------||
--0----------------|--L----------------||

            
            
Suggest correction
Creating personal tab
Creating personal tab
You can edit any tab online and save it as your Personal.

You can edit, replace or remove any tab part or add personal notes – all changes will be seen only by you.

Personal tabs can be accessed anytime from any device, even offline.
Learn more »
comments
print report bad tab
6 comments total. Showing first comments.
0 reply
mickybassfan 10 Jun 16, 2007 08:29 AM

I've been waiting for some1 to tab this song couldnt get it right myself good tab

0 reply
doom378 10 Jun 26, 2007 07:33 PM

I've been looking for this song and I can't tab worth crap but i heard lots of other stuff that i'm pretty sure was bass that you don't have in here

0 reply
FBassman 1,012 May 14, 2008 03:54 PM

it doesn't look quite right. and what the hell is L?

guest
You may want to rate the tab now too:
select rating
Wanna post a correction for this tab? Suggest correction