Oops, an error
Loading. Please wait.

Drones tab

version 2
version 2

Whole song

Interactive

11,439 views 9 this week
4 commentsread comments
1 2 3 4 5
x 5
add to favorites
×
Save as Personal and add changes to this tab that will be seen only by you. Learn more ›
×
You can save this tab as Personal to edit and correct it or add notes. All changes will be seen only by you. Learn more »
launch autoscroll
font size
0
reset
how to read this tab
guitar tuner
edit
Autoscroll
slow
fast
+/-
esc
set tempo
stop
Difficulty
intermediate
(Guitar 1)

Intro

Eb|---------------------------------|
Bb|---------------------------------|
Gb|-----7-9-------------7-9-----7---|
Db|-2-2-7-9-2-2-5-5-2-2-7-9-2-2-7---| x3
Ab|-2-2-5-7-2-2-5-5-2-2-5-7-2-2-5---|
Eb|-0-0-----0-0-3-3-0-0-----0-0-5---|

Verse

                                                             Scratch
-------------------------------0------------------------------------|
-------------------------------0------------------------------------|
-------------------------------0------------------------------------|
-2-----------------------------0------------------------------------|
-2-----------------------------0------------------------------------|
-0-----------------------------0------------------------------------|

Pre-Chorus

-----------------------------------------------------------------|
-----------------------------------------------------------------|
-----------------------------------------------------------------|
-2-------------------------------5---------------7-----------7---|
-2---2-2-2-2-2-2-2-2-2-2-2-2-2-2-5---5-5-5-5-5-5-7---7-7-7-7-7---|
-0---0-0-0-0-0-0-0-0-0-0-0-0-0-0-3---3-3-3-3-3-3-5---5-5-5-5-5---|
     . . . . . . . . . . . . . .     . . . . . .     . . . .

-----------------------------------------------------------------|
-----------------------------------------------------------------|
-------------------------------------------------7-7-7-7-7-7-4---|
-2-------------------------------5---------------7-7-7-7-7-7-4---|
-2---2-2-2-2-2-2-2-2-2-2-2-2-2-2-5---5-5-5-5-5-5-5-5-5-5-5-5-2---|
-0---0-0-0-0-0-0-0-0-0-0-0-0-0-0-3---3-3-3-3-3-3-----------------|
     . . . . . . . . . . . . . .     . . . . . .

Chorus

-----------------------------------------------------------------|
-----------------------------------------------------------------|
-5-5-5-5-5-5-5-5-5-5-5-5-5-5-5-5-7-7-7-7-7-7-7-7-7-7-7-7-7-7-7-7-|
-5-5-5-5-5-5-5-5-5-5-5-5-5-5-5-5-7-7-7-7-7-7-7-7-7-7-7-7-7-7-7-7-|
-3-3-3-3-3-3-3-3-3-3-3-3-3-3-3-3-5-5-5-5-5-5-5-5-5-5-5-5-5-5-5-5-|
-----------------------------------------------------------------|

-----------------------------------------------------------------|
-----------------------------------------------------------------|
-----------------------------------------------------------------|
-4-4-5---4-4-4---4-4-2---4-4-0---2-2-2-2-4-4-4-4-5-5-5-5-4-4-4-4-|
-2-2-2---2-2-2---2-2-2---2-2-2---2-2-2-2-5-5-5-5-5-5-5-5-5-5-5-5-|
---------------------------------0-0-0-0-2-2-2-2-3-3-3-3-2-2-2-2-|
 . .     . .     . .     . .

-----------------------------------------------------------------|
-----------------------------------------------------------------|
-5-5-5-5-5-5-5-5-5-5-5-5-5-5-5-5-7-7-7-7-7-7-7-7-7-7-7-7-7-7-7-7-|
-5-5-5-5-5-5-5-5-5-5-5-5-5-5-5-5-7-7-7-7-7-7-7-7-7-7-7-7-7-7-7-7-|
-3-3-3-3-3-3-3-3-3-3-3-3-3-3-3-3-5-5-5-5-5-5-5-5-5-5-5-5-5-5-5-5-|
-----------------------------------------------------------------|

-------------------------------------------------5-|
---------------------------------------------------|
---------------------------------------------------|
-4-4-5---4-4-4---4-4-2---4-4-0---2-2-2-2-2-2-2-2---|
-2-2-2---2-2-2---2-2-2---2-2-2---2-2-2-2-2-2-2-2---|
---------------------------------0-0-0-0-0-0-0-0---|
 . .     . .     . .     . .

Intro

---------------------------------|
---------------------------------|
-----7-9-------------7-9-----7---|
-2-2-7-9-2-2-5-5-2-2-7-9-2-2-7---| x3
-2-2-5-7-2-2-5-5-2-2-5-7-2-2-5---|
-0-0-----0-0-3-3-0-0-----0-0-5---|

Verse

                                                             Scratch
--------------------------------------------------------------------|
--------------------------------------------------------------------|
--------------------------------------------------------------------|
-2------------------------------------------------------------------|
-2------------------------------------------------------------------|
-0------------------------------------------------------------------|

Pre-Chorus

-----------------------------------------------------------------|
-----------------------------------------------------------------|
-----------------------------------------------------------------|
-2-------------------------------5---------------7-----------7---|
-2---2-2-2-2-2-2-2-2-2-2-2-2-2-2-5---5-5-5-5-5-5-7---7-7-7-7-7---|
-0---0-0-0-0-0-0-0-0-0-0-0-0-0-0-3---3-3-3-3-3-3-5---5-5-5-5-5---|
     . . . . . . . . . . . . . .     . . . . . .     . . . .

-----------------------------------------------------------------|
-----------------------------------------------------------------|
-------------------------------------------------7-7-7-7-7-7-4---|
-2-------------------------------5---------------7-7-7-7-7-7-4---|
-2---2-2-2-2-2-2-2-2-2-2-2-2-2-2-5---5-5-5-5-5-5-5-5-5-5-5-5-2---|
-0---0-0-0-0-0-0-0-0-0-0-0-0-0-0-3---3-3-3-3-3-3-----------------|
     . . . . . . . . . . . . . .     . . . . . .

Chorus

-----------------------------------------------------------------|
-----------------------------------------------------------------|
-5-5-5-5-5-5-5-5-5-5-5-5-5-5-5-5-7-7-7-7-7-7-7-7-7-7-7-7-7-7-7-7-|
-5-5-5-5-5-5-5-5-5-5-5-5-5-5-5-5-7-7-7-7-7-7-7-7-7-7-7-7-7-7-7-7-|
-3-3-3-3-3-3-3-3-3-3-3-3-3-3-3-3-5-5-5-5-5-5-5-5-5-5-5-5-5-5-5-5-|
-----------------------------------------------------------------|

-----------------------------------------------------------------|
-----------------------------------------------------------------|
-----------------------------------------------------------------|
-4-4-5---4-4-4---4-4-2---4-4-0---2-2-2-2-4-4-4-4-5-5-5-5-4-4-4-4-|
-2-2-2---2-2-2---2-2-2---2-2-2---2-2-2-2-5-5-5-5-5-5-5-5-5-5-5-5-|
---------------------------------0-0-0-0-2-2-2-2-3-3-3-3-2-2-2-2-|
 . .     . .     . .     . .

-----------------------------------------------------------------|
-----------------------------------------------------------------|
-5-5-5-5-5-5-5-5-5-5-5-5-5-5-5-5-7-7-7-7-7-7-7-7-7-7-7-7-7-7-7-7-|
-5-5-5-5-5-5-5-5-5-5-5-5-5-5-5-5-7-7-7-7-7-7-7-7-7-7-7-7-7-7-7-7-|
-3-3-3-3-3-3-3-3-3-3-3-3-3-3-3-3-5-5-5-5-5-5-5-5-5-5-5-5-5-5-5-5-|
-----------------------------------------------------------------|

-----------------------------------------------------------------|
-----------------------------------------------------------------|
-----------------------------------------------------------------|
-4-4-5---4-4-4---4-4-2---4-4-0---2-2-2-2-2-2-2-2-4-4-4-4-4-4-4-4-|
-2-2-2---2-2-2---2-2-2---2-2-2---2-2-2-2-2-2-2-2-5-5-5-5-5-5-5-5-|
---------------------------------0-0-0-0-0-0-0-0-2-2-2-2-2-2-2-2-|
 . .     . .     . .     . .

-------------------|
-------------------|
-5-5-5-5-5-5-5-5-5-|
-5-5-5-5-5-5-5-5-5-|
-3-3-3-3-3-3-3-3-3-|
-3-3-3-3-3-3-3-3-3-|

Bridge

-----------------------------------------------------------------|
-----------------------------------------------------------------|
-----------------------------5-------------------------------7---|
-2---2---2---2---2---2---2---5---5---5---5---5---5---5---5---7---|
-2---2---2---2---2---2---2---3---5---5---5---5---5---5---5---5---|
-0---0---0---0---0---0---0---3---3---3---3---3---3---3---3---5---|

-----------------------------------------------------------------|
-----------------------------------------------------------------|
-----------------------------------------------------------------|
-7---7---7---7---7---7---7---5---2---2---2---2---2---2---2---5---|
-7---7---7---7---7---7---7---5---2---2---2---2---2---2---2---5---|
-5---5---5---5---5---5---5---3---0---0---0---0---0---0---0---3---|

-----------------------------------------------------------------|
-----------------------------------------------------------------|
-----------------------------5-------------------------------7---|
-2---2---2---2---2---2---2---5---5---5---5---5---5---5---5---7---|
-2---2---2---2---2---2---2---3---5---5---5---5---5---5---5---5---|
-0---0---0---0---0---0---0---3---3---3---3---3---3---3---3---5---|

-----------------------------------------------------------------|
-----------------------------------------------------------------|
-----------------------------------------------------------------|
-7---7---7---7---7---7---7---5---2---2---2---2---2---5b----------|
-7---7---7---7---7---7---7---5---2---2---2---2---2---5b----------|
-5---5---5---5---5---5---5---3---0---0---0---0---0---3b----------|

-----------------------------------------------------------------|
-----------------------------------------------------------------|
-----------------------------------------------------------------|
-----------------------------5-5-----------------------------7-7-|
-2-2---2-2-2---2-2-2---2-2-2-3-3-5-5---5-5-5---5-5-5---5-5-5-5-5-|
-0-0---0-0-0---0-0-0---0-0-0-3-3-3-3---3-3-3---3-3-3---3-3-3-5-5-|
 . .   . . .   . . .   . . . . . . .   . . .   . . .   . . . . .

-----------------------------------------------------------------|
-----------------------------------------------------------------|
-----------------------------------------------------------------|
-----------------------------------------------------------------|
-7-7---7-7-7---7-7-7---7-7-7-5-5-2-2---2-2-2---2-2-2---2-2-2-5-5-|
-5-5---5-5-5---5-5-5---5-5-5-3-3-0-0---0-0-0---0-0-0---0-0-0-3-3-|
 . .   . . .   . . .   . . . . . . .   . . .   . . .   . . . . .

-------------------------------0-----------------------------|
-------------------------------0-----------------------------|
-------------------------------0-----------------------------|
-2-----------------------------0-----------------------------|
-2-----------------------------0-----------------------------|
-0-----------------------------0-----------------------------|

-0-----------------------------0-----------------------------|
-0-----------------------------0-----------------------------|
-0-----------------------------0-----------------------------|
-5-----------------------------7-----------------9h10p9------|
-5-----------------------------7--------------------------10-|
-3-----------------------------5-----------------------------|

-------------------------------0-----------------------------|
-------------------------------0-----------------------------|
-------------------------------0-----------------------------|
-2-----------------------------0-----------------------------|
-2-----------------------------0-----------------------------|
-0-----------------------------0-----------------------------|

-0-----------------------------10-10-10-10-10-10-10-10-|
-0-----------------------------10-10-10-10-10-10-10-10-|
-0-----------------------------------------------------|
-5-----------------------------------------------------|
-5-----------------------------------------------------|
-3-----------------------------------------------------|

-10b-10b-10b-10b-10b-10b-----|
-10b-10b-10b-10b-10b-10b-----|
-------------------------4---|
-------------------------4---|
-------------------------2---|
-----------------------------|

Chorus

-----------------------------------------------------------------|
-----------------------------------------------------------------|
-5-5-5-5-5-5-5-5-5-5-5-5-5-5-5-5-7-7-7-7-7-7-7-7-7-7-7-7-7-7-7-7-|
-5-5-5-5-5-5-5-5-5-5-5-5-5-5-5-5-7-7-7-7-7-7-7-7-7-7-7-7-7-7-7-7-|
-3-3-3-3-3-3-3-3-3-3-3-3-3-3-3-3-5-5-5-5-5-5-5-5-5-5-5-5-5-5-5-5-|
-----------------------------------------------------------------|

-----------------------------------------------------------------|
-----------------------------------------------------------------|
-----------------------------------------------------------------|
-4-4-5---4-4-4---4-4-2---4-4-0---2-2-2-2-4-4-4-4-5-5-5-5-4-4-4-4-|
-2-2-2---2-2-2---2-2-2---2-2-2---2-2-2-2-5-5-5-5-5-5-5-5-5-5-5-5-|
---------------------------------0-0-0-0-2-2-2-2-3-3-3-3-2-2-2-2-|
 . .     . .     . .     . .

-----------------------------------------------------------------|
-----------------------------------------------------------------|
-5-5-5-5-5-5-5-5-5-5-5-5-5-5-5-5-7-7-7-7-7-7-7-7-7-7-7-7-7-7-7-7-|
-5-5-5-5-5-5-5-5-5-5-5-5-5-5-5-5-7-7-7-7-7-7-7-7-7-7-7-7-7-7-7-7-|
-3-3-3-3-3-3-3-3-3-3-3-3-3-3-3-3-5-5-5-5-5-5-5-5-5-5-5-5-5-5-5-5-|
-----------------------------------------------------------------|

-----------------------------------|
-----------------------------------|
-----------------------------------|
-4-4-5---4-4-4---4-4-2---4-4-0---2-|
-2-2-2---2-2-2---2-2-2---2-2-2---2-|
---------------------------------0-|
 . .     . .     . .     . .

-----------------|
-----------------|
-----------------|
-4---------------|
-5---------------|
-2---------------|

Intro

---------------------------------|
---------------------------------|
-----7-9-------------7-9-----7---|
-2-2-7-9-2-2-5-5-2-2-7-9-2-2-7---| x3
-2-2-5-7-2-2-5-5-2-2-5-7-2-2-5---|
-0-0-----0-0-3-3-0-0-----0-0-5---|

---
---
---
-2-
-2-
-0-

(Guitar 2)

Pre-Chorus

Eb|-----------------------------------|
Bb|-----------------------------------|
Gb|-9-----7-9-----7-9---12-11---------|
Db|-x-----x-x-----x-x----x--x---------| x4
Ab|-7-----5-7-----5-7---10--9---------|
Eb|-----------------------------------|

Chorus

During this part of the Guitar 1, :

---------------------------------|
---------------------------------|
---------------------------------|
-2-2-2-2-4-4-4-4-5-5-5-5-4-4-4-4-|
-2-2-2-2-5-5-5-5-5-5-5-5-5-5-5-5-|
-0-0-0-0-2-2-2-2-3-3-3-3-2-2-2-2-|

you do :

---------------------------------|
---------------------------------|
-9-9-9-9-7-7-7-7-5-5-5-5-4-4-4-4-|
-x-x-x-x-x-x-x-x-x-x-x-x-x-x-x-x-|
-7-7-7-7-5-5-5-5-3-3-3-3-2-2-2-2-|
---------------------------------|

Verse

------------------------------------------------------------------|
-7*----------------------------------------------12*--------------|
-----------------7*-----------------------------------------------|
---------------------------------7*-------------------------------|
------------------------------------------------------------------|
------------------------------------------------------------------|

                                                                   x2

-------------------------------------------------12*--------------|
-7*---------------------------------------------------------------|
-----------------5*--------------7*-------------------------------|
------------------------------------------------------------------|
------------------------------------------------------------------|
------------------------------------------------------------------|

Chorus

During this part of the Guitar 1, :

---------------------------------|
---------------------------------|
---------------------------------|
-2-2-2-2-4-4-4-4-5-5-5-5-4-4-4-4-|
-2-2-2-2-5-5-5-5-5-5-5-5-5-5-5-5-|
-0-0-0-0-2-2-2-2-3-3-3-3-2-2-2-2-|

you do :

---------------------------------|
---------------------------------|
-9-9-9-9-7-7-7-7-5-5-5-5-4-4-4-4-|
-x-x-x-x-x-x-x-x-x-x-x-x-x-x-x-x-|
-7-7-7-7-5-5-5-5-3-3-3-3-2-2-2-2-|
---------------------------------|

Bridge

-----------------------------------------------------------------|
-----------------------------------------------------------------|
---------16--------------14--------------16--------------14------|
-----14------14--17--14------17------14------14--17--14------17--|
-17------------------------------17------------------------------|
-----------------------------------------------------------------|

-----------------------------------------------------------------|
-----------------------------------------------------------------|
---------16--------------14--------------16----------------------|
-----14------14--17--14------17------14------14--17--14------14--|
-17------------------------------17----------------------17------|
-----------------------------------------------------------------|

-----------------------------------------------------------------|
-----------------------------------------------------------------|
---------16--------------14--------------16--------------14------|
-----14------14--17--14------17------14------14--17--14------17--|
-17------------------------------17------------------------------|
-----------------------------------------------------------------|

-----------------------------------------------------------------|
-----------------------------------------------------------------|
---------16--------------14--------------16----------14b---------|
-----14------14--17--14------17------14------14--17--------------|
-17------------------------------17------------------------------|
-----------------------------------------------------------------|

During the P.M., you do nothing.

During, :

-------------------------------0-----------------------------|
-------------------------------0-----------------------------|
-------------------------------0-----------------------------|
-2-----------------------------0-----------------------------|
-2-----------------------------0-----------------------------|
-0-----------------------------0-----------------------------|

-0-----------------------------0-----------------------------|
-0-----------------------------0-----------------------------|
-0-----------------------------0-----------------------------|
-5-----------------------------7-----------------9h10p9------|
-5-----------------------------7--------------------------10-|
-3-----------------------------5-----------------------------|

you do nothing.

After, you do :

--------------------------------------------------------------------------|
--------------------------------------------------------------------------|
-9---------------7-9-11--------------9-11-12--------------11--------------|
-x---------------x-x--x--------------x--x--x---------------x--------------|
-7---------------5-7--9--------------7--9-10---------------9--------------|
--------------------------------------------------------------------------|

Legend :

.   ...P.M.
b   ...Bend
*   ...Harmonic
Suggest correction
Creating personal tab
Creating personal tab
You can edit any tab online and save it as your Personal.

You can edit, replace or remove any tab part or add personal notes – all changes will be seen only by you.

Personal tabs can be accessed anytime from any device, even offline.
Learn more »
comments
print report bad tab
4 comments total. Showing first comments.
0 reply
ssjEasterBunny 251 Jul 13, 2007 11:21 AM

The tab is a little disorganized. I prefer to see it sorted by section (verse, chorus, etc.) rather than by the guitars playing them, but even like this it was unclear.

Still, the second verse is more accurate than version 1, and I'm not sure but I think the bridge is as well.

+1 reply
Death-Reaper 165 Mar 31, 2008 09:26 PM

At least this guy knows how to play it the same tuning as RiseAgainst does (down 1/2 step), instead of those morons playing it in dropped D tuning.

0 reply
Gibson_SG_uzr55 260 Jul 11, 2008 05:11 PM

+1 to both comments. You're actually in the correct tuning, but you have the second chorus and verse going after the bridge, wtf.

guest
Wanna post a correction for this tab? Suggest correction