Oops, an error
Loading. Please wait.

Endgame bass

version 3
version 3

Whole song

Interactive

1,965 views 1 this week
1 commentread comment
1 2 3 4 5
3 more votes to show rating
add to favorites
×
Save as Personal and add changes to this tab that will be seen only by you. Learn more ›
×
You can save this tab as Personal to edit and correct it or add notes. All changes will be seen only by you. Learn more »
launch autoscroll
font size
0
reset
guitar tuner
edit
Autoscroll
slow
fast
+/-
esc
set tempo
stop
-----------------------------------------------------------------------------
                           ENDGAME-Rise Against
-----------------------------------------------------------------------------
Tabbed By: Angus Brookes
e-mail:negativesoulx@yahoo.com
Tuning:Half Step Down
Gb|----------------------------------------------------------------|
Db|----------------------------------------------------------------|
Ab|----------------3---2-0---2-3-5-----------------3---2-0---2-3-5-|
Eb|0---0-2-3-2-0-2---------3-------0---0-2-3-2-0-2---------3-------|

Gb|--------------------------------|--|--------------------------------|
Db|--------------------------------|--|--------------------------------|
Ab|----------------3---2-0---2-3-5-|3-|--3-3-3-3-3-3-5---5-5-5-5-5-5---|
Eb|0---0-2-3-2-0-2---------3-------|--|------------------------------0-|

Gb|----------------------------------------------------------------|
Db|----------------------------------------------------------------|
Ab|--------------3---2-0---2-3-5-----------------3---2-0---2-3-5---|
Eb|--0-2-3-2-0-2---------3-------0---0-2-3-2-0-2---------3-------0-|

Gb|----------------------------------------------------------------|
Db|----------------------------------------------------------------|
Ab|--------------3---2-0---2-3-5-----3-3-3-3-3-3-5---5-5-5-5-5-5---|
Eb|--0-2-3-2-0-2---------3-------0-------------------------------0-|

Gb|----------------------------------------------------------------|
Db|----------------------------------------------------------------|
Ab|--------------3---2-0---2-3-5-----------------3---2-0---2-3-5---|
Eb|--0-2-3-2-0-2---------3-------0---0-2-3-2-0-2---------3-------0-|

Gb|----------------------------------------------------------------|
Db|----------------------------------------------------------------|
Ab|--------------3---2-0---2-3-5-----3-3-3-3-3-3-5---5-5-5-5-5-5-0-|
Eb|--0-2-3-2-0-2---------3-------0---------------------------------|


Gb|----------------------------------------------------------------|
Db|----------------------------------------------------------------|
Ab|0-------------------------------3-------------------------------|
Eb|----------------------------------------------------------------|

Gb|----------------------------------------------------------------|
Db|----------------------------------------------------------------|
Ab|0-------------------------------3---3---3---3---5---5---5---5---|
Eb|----------------------------------------------------------------|

Gb|----------------------------------------------------------------|
Db|----------------------------------------------------------------|
Ab|----------------------------------------------------------------|
Eb|0---0---0---0---0---0---0---0---3---3---3---3---3---3---3---3---|

Gb|----------------------------------------------------------------|
Db|----------------------------------------------------------------|
Ab|0---0---0---0---0---0---0---0---2---2---2---2---5---5---5---5---|
Eb|----------------------------------------------------------------|

Gb|----------------------------------------------------------------|
Db|----------------------------------------------------------------|
Ab|7---7---7---7---7---7---5---------------------------------------|
Eb|----------------------------7---3---3---3---3---3---3---3---3---|

Gb|----------------------------------------------------------------|
Db|----------------------------------------------------------------|
Ab|0---0---0---0---0---0---0---0---2---2---2---2---5---5---5---5---|
Eb|--------------------------------------------------------------0-|

Gb|--------------------------------------0-------5---4-2-0-4-5-7---|
Db|------------------------------2---2-4---4-2-4-------------------|
Ab|--------------3---2-0---2-3-5-----------------------------------|
Eb|--0-2-3-2-0-2---------3---------------------------------------0-|

Gb|----------------------------------------------------------------|
Db|----------------------------------------------------------------|
Ab|--------------3---2-0---2-3-5-----------------3---2-0---2-3-5---|
Eb|--0-2-3-2-0-2---------3-------0---0-2-3-2-0-2---------3-------0-|

Gb|----------------------------------------------------------------|
Db|----------------------------------------------------------------|
Ab|--------------3---2-0---2-3-5-----3-3-3-3-3-3-5---5-5-5-5-5-5---|
Eb|--0-2-3-2-0-2---------3-------0-------------------------------0-|

Gb|----------------------------------------------------------------|
Db|----------------------------------------------------------------|
Ab|--------------3---2-0---2-3-5-----------------3---2-0---2-3-5---|
Eb|--0-2-3-2-0-2---------3-------0---0-2-3-2-0-2---------3-------0-|

Gb|----------------------------------------------------------------|
Db|----------------------------------------------------------------|
Ab|--------------3---2-0---2-3-5-----3-3-3-3-3-3-5---5-5-5-5-5-5-0-|
Eb|--0-2-3-2-0-2---------3-------0---------------------------------|

Gb|----------------------------------------------------------------|
Db|----------------------------------------------------------------|
Ab|0-------------------------------3---3---3---3---5---------------|
Eb|----------------------------------------------------------------|

Gb|----------------------------------------------------------------|
Db|----------------------------------------------------------------|
Ab|----------------------------------------------------------------|
Eb|0---0---0---0---0---0---0---0---3---3---3---3---3---3---3---3---|

Gb|----------------------------------------------------------------|
Db|----------------------------------------------------------------|
Ab|0---0---0---0---0---0---0---0---2---2---2---2---5---5---5---5---|
Eb|----------------------------------------------------------------|

Gb|----------------------------------------------------------------|
Db|--------------------------------5---5---5---5---5---5---5-------|
Ab|7---7---7---7---7---7---5-----------------------------------5---|
Eb|----------------------------7-----------------------------------|

Gb|----------------------------------------------------------------|
Db|------------------------4---5---4---4---4---5---4---2---0---0---|
Ab|7---0---0---0---0---0-------------------------------------------|
Eb|----------------------------------------------------------------|

Gb|----------------------------------------------------------------|
Db|--------5---------------5---------------5---------------5-------|
Ab|7---7-------7-------7-------7---7---7-------7-------7-------7---|
Eb|----------------------------------------------------------------|

Gb|----------------------------------------------------------------|
Db|--------5---------------5---------------5---------------5-------|
Ab|7---7-------7-------7-------7---7---7-------7-------7-------7---|
Eb|----------------------------------------------------------------|

Gb|------------------------------|
Db|--------5---------------5-----|
Ab|7---7-------7-------7-------7-|
Eb|------------------------------|

Gb|----------------------------------------------------------------|
Db|--------5---------------5---7-----------5---------------5---7---|
Ab|7---7-------7-------7-----------7---7-------7-------7-----------|
Eb|----------------------------------------------------------------|

Gb|5---5---5---5---5---7---5---4---2---2---2---2---2---4---2---0---|
Db|----------------------------------------------------------------|
Ab|----------------------------------------------------------------|
Eb|----------------------------------------------------------------|

Gb|----------------------------------------------------------------|
Db|--------5---------------5---7-----------5---------------5---7---|
Ab|7---7-------7-------7-----------7---7-------7-------7-----------|x2
Eb|----------------------------------------------------------------|

Gb|----------------------------------------------------------------|
Db|----------------------------------------------------------------|
Ab|3---3---3---3---3---3---3---3---0---0---0---0---0---0---0---0---|
Eb|----------------------------------------------------------------|

Gb|----------------------------------------------------------------|
Db|----------------------------------------------------------------|
Ab|--------------------------------5---5---5---5---5---5---5---5---|
Eb|0---0---0---0---0---0---0---0-----------------------------------|

Gb|----------------------------------------------------------------|
Db|----------------------------------------------------------------|
Ab|3---3---3---3---3---3---3-------5---5---5---5---5---5---5-------|
Eb|----------------------------3-------------------------------3---|

Gb|--------------------------------9---7---------------------------|*Ten,not
Db|----------------------------------------9-------10--9-----------|one,zero
Ab|7---7---7---7---7---7---7///////----------------------------10--|
Eb|----------------------------------------------------------------|

Gb|----------------------------------------------------------------|
Db|----------------------------------------------------------------|
Ab|3---3---3---3---3---3---3---3---0---0---0---0---0---0---0---0---|
Eb|----------------------------------------------------------------|

Gb|----------------------------------------------------------------|
Db|----------------------------------------------------------------|
Ab|----------------------------------------------------------------|
Eb|0---0---0---0---0---0---0---0---3---3---3---3---3---3---3---3---|

Gb|----------------------------------------------------------------|
Db|----------------------------------------------------------------|
Ab|3---3---3---3---3---3---3---3---5---5---5---5---5---5---5---5---|
Eb|----------------------------------------------------------------|

Gb|----------------------------------------------------------------|
Db|----------------------------------------------------------------|
Ab|----------------------------------------------------------------|
Eb|0---------------------------------------------------------------|

Gb|----------------------------------------------------------------|
Db|----------------------------------------------------------------|
Ab|----------------------------------------------------------------|
Eb|----------------------------------------------------------------|

Gb|----------------------------------------------------------------|
Db|----------------------------------------------------------------|
Ab|----------------------------------------------------------------|
Eb|0---0---0---0---0---0---0---0---3---3---3---3---3---3---3---3---|

Gb|----------------------------------------------------------------|
Db|----------------------------------------------------------------|
Ab|0---0---0---0---0---0---0---0---2---2---2---2---5---5---5---5---|
Eb|----------------------------------------------------------------|

Gb|----------------------------------------------------------------|
Db|----------------------------------------------------------------|
Ab|7---7---7---7---7---7---5---------------------------------------|
Eb|----------------------------7---3---3---3---3---3---3---3---3---|

Gb|----------------------------------------------------------------|
Db|----------------------------------------------------------------|
Ab|0---0---0---0---0---0---0---0---2---2---2---2---5---5-----------|
Eb|--------------------------------------------------------10\\\\\\|

Gb|----------------------------------------------------------------|
Db|----------------------------------------------------------------|
Ab|----------------------------------------------------------------|
Eb|0---0---0---0---0---0---0---0---3---3---3---3---3---3---3---3---|

Gb|----------------------------------------------------------------|
Db|----------------------------------------------------------------|
Ab|0---0---0---0---0---0---0---0---2---2---2---2---5---5---5---5---|
Eb|----------------------------------------------------------------|


Gb|----------------------------------------------------------------|
Db|----------------------------------------------------------------|
Ab|----------------------------------------------------------------|
Eb|0---0-------0---0---0-------0---3---3-------3---3---3-------3---|

Gb|----------------------------------------------------------------|
Db|----------------------------------------------------------------|
Ab|0---0-------0---0---0-------0---2---2---2---2---5---5---5---5---|
Eb|----------------------------------------------------------------|

| /  slide up
| \  slide down
| h  hammer-on
| p  pull-off
| ~  vibrato
| +  harmonic
| x  Mute note
=============================================================================

            
            
Suggest correction
Creating personal tab
Creating personal tab
You can edit any tab online and save it as your Personal.

You can edit, replace or remove any tab part or add personal notes – all changes will be seen only by you.

Personal tabs can be accessed anytime from any device, even offline.
Learn more »
Give kudos to tab author, rate the tab!
1 2 3 4 5
comments
print report bad tab
1 comment total.
0 reply
Angus Brookes 31 Jan 11, 2012 08:13 PM

Pardon me, this was late at night. Don't play the "2x" and extra measure in the bridge. -Angus

guest
You may want to rate the tab now too:
select rating
Wanna post a correction for this tab? Suggest correction