Oops, an error
Loading. Please wait.

Entertainment Tab

version 1
version 1

Intro

  • This is just the introduction to Entertainment, th... Show more

Whole song

Interactive

16 views 1 this week
no commentswrite comment
1 2 3 4 5
3 more votes to show rating
add to favorites
launch autoscroll
font size
0
reset
how to read this tab
guitar tuner
Autoscroll
slow
fast
+/-
esc
set tempo
stop
Help us to improve Ultimate-Guitar.com Take our survey!
×
Author
Difficulty
novice
About this tab version
This is just the introduction to Entertainment, there is a second guitar that comes in and plays the riff that is played with distortion. Was this info helpful? Yes No
[Intro]

e|-------------------------------------------------------------------------------------|
B|-------------------------------------------------------------------------------------|
G|-------------------------------------------------------------------------------------|
D|-------------------------------------------------------------------------------------|
A|----------------------------------------10-9-----------10-9----------10-9-7----------|
E|--7-7-7-7-7-7-7-7-7-7-7-7-7-7-7-7----7--------10-9--7--------10-9-10--------10-9-7---|
PM ~~~~~~~~~~~~~~~~~~~~~~~~~~~~~~~~|

e|--------------------------------------------------------------------------|
B|--------------------------------------------------------------------------|
G|------------------------------9-9-9-9-------------------------------------|
D|--9-9-9-9-9-9-9-9-12-12-12-12-9-9-9-9-9-9-9-9-----------------------------|
A|--9-9-9-9-9-9-9-9-12-12-12-12-7-7-7-7-9-9-9-9-----------------------------|
E|--7-7-7-7-7-7-7-7-10-10-10-10---------7-7-7-7-----------------------------|
PM ~~~~~~~~~~~~~~~~~~~~~~~~~~~~~~~~~~~~~~~~~~~~|

**************
PM - Palm Mute
**************


Suggest correction
Give kudos to tab author, rate the tab!
1 2 3 4 5
comments
print report bad tab
guest
You may want to rate the tab now too:
select rating
Wanna post a correction for this tab? Suggest correction