Oops, an error
Loading. Please wait.

Entertainment Tab

version 1
version 1

Whole song

Interactive

63,520 views 6 this week
6 commentsread comments
1 2 3 4 5
x 23
add to favorites
launch autoscroll
font size
0
reset
how to read this tab
guitar tuner
Autoscroll
slow
fast
+/-
esc
set tempo
stop
Help us to improve Ultimate-Guitar.com Take our survey!
×
Author
I'm pretty sure this is right. :
Guitar 1 is the main guitar that you can hear
Guitar 2 is the other one in the background


[Intro]

Bass palm mute 4 bars

 Guitar 2 (clean)
e|----------------|----------------|-----------------|----|
B|----------------|----------------|-----------------|----|
G|----------------|----------------|-----------------|----|
D|-5-4~-----------|-5-4~-----------|--5-4---2--------|----|
A|2-----------5-4-|2-----------5-4-|-5-----------5-4-|-2~-|
E|----------------|----------------|-----------------|----|

 Guitar 1+2 (distortion)
e|-------------------|--------------------|
B|-------------------|--------------------|
G|4/12-11---11-11-11-|-11-11-11-11-7---6--|  X2
D|-------------------|--------------------|
A|2/10--9----9--9--9-|--9--9--9--9-5---4--|
E|-------------------|--------------------|

e|-------------------|--------------------|------------------------------|
B|-------------------|--------------------|------------------------------|
G|7/12-11---11-11-11-|-11-11-11-11--7---6-|6-6-6-6-6-6-6-6-6-6-6-6-6-6-6-|
D|-------------------|--------------------|------------------------------|
A|5/10--9----9--9--9-|--9--9--9--9--5---4-|4-4-4-4-4-4-4-4-4-4-4-4-4-4-4-|
E|-------------------|--------------------|------------------------------|

[Verse 1]
Guitar 1
|--
|--
|4~
|--  (let ring for 7 bars) pickslide on 8th bar
|2~
|--

Guitar 2
  |----------------------------------------------------------------|
  |----------------------------------------------------------------|
  |----------------------------------------------------------------|
  |----------------------------------------------------------------|
  |2222222222222222222222222222222255555555777777772222222222222222|
  |----------------------------------------------------------------|
pm ****************************************************************

 Guitar 1
e|-----------------------------------------------------------|
B|-----------------------------------------------------------|
G|4-444444444444-44-44444444444-6-7-7777779-999999-444444----|
D|4-444444444444-44-44444444444-6-7-7777779-999999-4444442-4-|
A|2-222222222222-22-22222222222-4-5-5555557-777777-2222222-4-|
E|-------------------------------------------------------0-2-|
pm ***********  *  **********      ******  ******

 Guitar 2
e|--------------------------------------------------------------|
B|--------------------------------------------------------------|
G|4-444444444444-44-44444444444-----------------444444444444----|
D|4-444444444444-44-44444444444---5-4-2---2-----4444444444442-4-|
A|2-222222222222-22-22222222222-2-------5---4-5-2222222222222-4-|
E|----------------------------------------------------------0-2-|
pm ***********  *  *********

 [Chorus]
 Guitar 1+2
e|-----------------------------------------------------xx--xx--xx--xx--|
B|-----------------------------------------------------xx--xx--xx--xx--|
G|------------------44444444-------------------2222222-xx4-xx4-xx4-xx4-|
D|55555555-22222222-44444444-44444444-55555555-2222222-xx4-xx4-xx4-xx4-|
A|55555555-22222222-22222222-44444444-55555555-0000000-xx2-xx2-xx2-xx2-|
E|33333333-00000000----------22222222-33333333---------xx--xx--xx--xx--|


e|------------------------------------------------------------------------|
B|------------------------------------------------------------------------|
G|------------------44444444-------------------2-------44444444-----------|
D|55555555-22222222-44444444-44444444-55555555-2-------44444444 pickslide-|
A|55555555-22222222-22222222-44444444-55555555-0-------22222222-----------|
E|33333333-00000000----------22222222-33333333----------------------------|
pm                                                    ********

 Link
 Guitar 1
e|-------------------|--------------------|
B|-------------------|--------------------|
G|4/12-11---11-11-11-|-11-11-11-11-7--6---|  X2
D|-------------------|--------------------|
A|2/10--9----9--9--9-|--9--9--9--9-5--4---|
E|-------------------|--------------------|

e|----------------------------------------------------|
B|----------------------------------------------------|
G|7/12-11---11-11-11-|-11-11-11-11--7-6666666666666666|
D|-------------------|--------------------------------|
A|5/10--9----9--9--9-|--9--9--9--9--5-4444444444444444|
E|----------------------------------------------------|

Guitar 2
|----------------------------------------------------------------|
|----------------------------------------------------------------|
|4444444444444444444444444444444477777777999999992222222222222222|
|4444444444444444444444444444444477777777999999992222222222222222|
|2222222222222222222222222222222255555555777777772222222222222222|
|----------------------------------------------------------------|

[Verse 2]
Guitar 1
|--
|--
|4~
|4~  (let ring for 8 bars)
|2~
|--

Guitar 2
|--
|--
|4~
|--   (let ring for 8 bars)
|2~
|--

 Guitar 1
e|-----------------------------------------------------------|
B|-----------------------------------------------------------|
G|4-444444444444-44-44444444444-6-7-7777779-999999-444444----|
D|4-444444444444-44-44444444444-6-7-7777779-999999-4444442-4-|
A|2-222222222222-22-22222222222-4-5-5555557-777777-2222222-4-|
E|-------------------------------------------------------0-2-|

 Guitar 2 (clean)
e|----------|-----------|-----------------|
B|----------|-----------|-----------------|
G|----------|-----------|-----------------|
D|--5-4-----|---5-4-----|---5-4-2---2-----|
A|2-----5-4-|-2-----5-4-|-2-------5---4-5-|
E|----------|-----------|-----------------|

 (distorted)
e|----------------|
B|----------------|
G|444444444444----|
D|4444444444442-4-
A|2222222222222-4-
E|------------0-2-

 [Chorus]
 Guitar 1+2
e|-----------------------------------------------------xx--xx--xx--xx--|
B|-----------------------------------------------------xx--xx--xx--xx--|
G|------------------44444444-------------------2222222-xx4-xx4-xx4-xx4-|
D|55555555-22222222-44444444-44444444-55555555-2222222-xx4-xx4-xx4-xx4-|
A|55555555-22222222-22222222-44444444-55555555-0000000-xx2-xx2-xx2-xx2-|
E|33333333-00000000----------22222222-33333333---------xx--xx--xx--xx--|


e|-----------------------------------------------|
B|-----------------------------------------------|
G|------------------44444444-------------------2-|
D|55555555-22222222-44444444-44444444-55555555-2-|
A|55555555-22222222-22222222-44444444-55555555-0-|
E|33333333-00000000----------22222222-33333333---|

 [Bridge]
 Guitar 1
e|----------------------------------------------------------------------|
B|----------------------------------------------------------------------|
G|4-44444442-7-6-4-44444442-7-6-7-9-9-11-11-11-11/12-11--16-16\14-18-17-|
D|----------------------------------------------------------------------|
A|2-22222220-5-4-2-22222220-5-4-5-7-7--9--9--9--9/10--9--14-14\12-16-15-|
E|----------------------------------------------------------------------|

e|-------------------------------------------------------------|
B|-------------------------------------------------------------|
G|4-44444442-7-6-4-44444442-7-6-4-7-4-4-2-2-2-4-7-777777799999-|
D|-------------------------------------------------------------|
A|2-22222220-5-4-2-22222220-5-4-2-5-2-2-0-0-0-2-5-555555577777-|
E|-------------------------------------------------------------|

 Guitar 1+2
e|----------------------------------------------------------|
B|----------------------------------------------------------|
G|2-22222222222222--------------------------------2~--3~--4-|
D|2-222222222222222-222222222222225-555555555555552~--3~--4-|
A|0-000000000000002-222222222222225-555555555555550~--1~--2-|
E|----------------0-000000000000003-33333333333333----------|
pm **************  **************  **************

3/4 part with the waltz feel to it..

 Link into Chorus
 Guitar 2
 **Note: in 3/4 time
e|------------------------|
B|------------------------|
G|4-1616161616161616161616|  (16's)
D|4-----------------------|
A|2-1414141414141414141414|  (14's)
E|------------------------|
 1+ 2 + 3   1 + 2 + 3   1


 Chorus (back to 4/4)
 Guitar 1+2
e|-----------------------------------------------------xx--xx--xx--xx--|
B|-----------------------------------------------------xx--xx--xx--xx--|
G|------------------44444444-------------------2222222-xx4-xx4-xx4-xx4-|
D|55555555-22222222-44444444-44444444-55555555-2222222-xx4-xx4-xx4-xx4-|
A|55555555-22222222-22222222-44444444-55555555-0000000-xx2-xx2-xx2-xx2-|
E|33333333-00000000----------22222222-33333333---------xx--xx--xx--xx--|


e|------------------------------------------------------|
B|------------------------------------------------------|
G|------------------44444444-------------------22222222-|
D|55555555-22222222-44444444-44444444-55555555-22222222-|
A|55555555-22222222-22222222-44444444-55555555-00000000-|
E|33333333-00000000----------22222222-33333333----------|

 [Outro]
 Guitar 1
e|----------------|----------------|
B|----------------|----------------|
G|4/12-11---111111|11111111-7--6---|  X2
D|----------------|----------------|
A|2/10--9----9-9-9|-9-9-9-9-5--4---|
E|----------------|----------------|

e|------------------------------------------------|
B|------------------------------------------------|
G|7/12-11---111111|11111111--7-6-4444444444444444-|
D|----------------|-------------------------------|
A|5/10--9----9-9-9|-9-9-9-9--5-4-2222222222222222-|
E|------------------------------------------------|

e|----------------|----------------|
B|----------------|----------------|
G|4/12-11---111111|11111111-7--6---|  X2
D|----------------|----------------|
A|2/10--9----9-9-9|-9-9-9-9-5--4---|
E|----------------|----------------|

e|---------------------|
B|---------------------|
G|7/12\11-~--9\7-7\6\4-|
D|---------------------|
A|5/10\-9~---7\5-5\4\2-|
E|---------------------|

Guitar 2
|----------------------------------------------------------------|
|----------------------------------------------------------------|
|4444444444444444444444444444444477777777999999994444444444444444|
|4444444444444444444444444444444477777777999999994444444444444444|
|2222222222222222222222222222222255555555777777772222222222222222|
|----------------------------------------------------------------|

e|-------------------------------------------|
B|-------------------------------------------|
G|444444444444444444444444444444447~------9~-|
D|444444444444444444444444444444447~------9~-|
A|222222222222222222222222222222225~------7~-|
E|-------------------------------------------|

************************************

*= Palm mute
/= Slide up
\= Slide down
x= mute string

************************************
Suggest correction
comments
print report bad tab
6 comments total. Showing first comments.
+2 reply
Tadens 40 Nov 16, 2008 07:23 AM

great tab dude but I don't think it's necessary to play it in drop d... u can just play it in standard and adjust the chords...

+3 reply
housedimir66 10 Nov 25, 2008 09:21 AM

is "circusy" even a word...i think not, and i believe it has more of a waltz feel to it since it's in 3/4 time.....just my opinion...great tab too but it should be
|------------|
|------------|
|------------|
|--5---4-----|
|2---2---5-4-|
|------------|

for the first part then

|-------------|
|-------------|
|-------------|
|--5---4------|
|5---5---5-4-2|
|-------------|

just my thoughts on it

-2 reply
Blinker182182 87 May 16, 2009 09:29 PM

When You go |-------------------|--------------------|------------------------------
|-------------------|--------------------|------------------------------
|7/12-11---11-11-11-|-11-11-11-11--7---6-|6-6-6-6-6-6-6-6-6-6-6-6-6-6-6-
|-------------------|--------------------|------------------------------
|5/10--9----9--9--9-|--9--9--9--9--5---4-|4-4-4-4-4-4-4-4-4-4-4-4-4-4-4-
|-------------------|--------------------|------------------------------

Near the intro it should end with
|-------------------|--------------------|-----9-9-9-9-7-6-4-4-4-4-4----
|-------------------|-----7-7-7-7-5-4-2-2-2-2-2---------------------------
or something like that

guest
You may want to rate the tab now too:
select rating
Wanna post a correction for this tab? Suggest correction