Oops, an error
Loading. Please wait.

Entertainment ukulele

version 1
version 1

Whole song

Interactive

191 views 1 this week
no commentswrite comment
1 2 3 4 5
3 more votes to show rating
add to favorites
×
Save as Personal and add changes to this tab that will be seen only by you. Learn more ›
×
You can save this tab as Personal to edit and correct it or add notes. All changes will be seen only by you. Learn more »
launch autoscroll
font size
0
reset
transpose
0
reset
display chords
guitar tuner
edit
Autoscroll
slow
fast
+/-
esc
set tempo
stop
Strumming
There is no strumming pattern for this song yet. and get +5 IQ
I'm pretty sure this is right. :
Guitar 1 is the main guitar that you can hear
Guitar 2 is the other one in the background

*= Palm mute
/= Slide up

\= Slide down
x= mute string

Intro 

Bass palm mute 4 bars

Guitar 2 (clean)
|----------------|----------------|-----------------|----|
|----------------|----------------|-----------------|----|
|----------------|----------------|-----------------|----|
|-5-4~-----------|-5-4~-----------|--5-4---2--------|----|
|2-----------5-4-|2-----------5-4-|-5-----------5-4-|-2~-|
|----------------|----------------|-----------------|----|

Guitar 1+2 (distortion)
|-------------------|--------------------|
|-------------------|--------------------|
|4/12-11---11-11-11-|-11-11-11-11-7---6--|  X2
|-------------------|--------------------|
|2/10--9----9--9--9-|--9--9--9--9-5---4--|
|-------------------|--------------------|

|-------------------|--------------------|------------------------------
|-------------------|--------------------|------------------------------
|7/12-11---11-11-11-|-11-11-11-11--7---6-|6-6-6-6-6-6-6-6-6-6-6-6-6-6-6-
|-------------------|--------------------|------------------------------
|5/10--9----9--9--9-|--9--9--9--9--5---4-|4-4-4-4-4-4-4-4-4-4-4-4-4-4-4-
|-------------------|--------------------|------------------------------

Verse 1
Guitar 1 
|--
|--
|4~
|--  (let ring for 7 bars) pickslide on 8th bar
|2~
|--

Guitar 2
  |----------------------------------------------------------------|
  |----------------------------------------------------------------|
  |----------------------------------------------------------------|
  |----------------------------------------------------------------|
  |2222222222222222222222222222222255555555777777772222222222222222|
  |----------------------------------------------------------------|
pm ****************************************************************

Guitar 1
|-----------------------------------------------------------|
|-----------------------------------------------------------|
|4-444444444444-44-44444444444-6-7-7777779-999999-444444----|
|4-444444444444-44-44444444444-6-7-7777779-999999-4444442-4-|
|2-222222222222-22-22222222222-4-5-5555557-777777-2222222-4-|
|-------------------------------------------------------0-2-|
pm ***********  *  **********      ******  ******

Guitar 2
|--------------------------------------------------------------|
|--------------------------------------------------------------|
|4-444444444444-44-44444444444-----------------444444444444----|
|4-444444444444-44-44444444444---5-4-2---2-----4444444444442-4-|
|2-222222222222-22-22222222222-2-------5---4-5-2222222222222-4-|
|----------------------------------------------------------0-2-|
pm ***********  *  *********

Chorus 
Guitar 1+2
|-----------------------------------------------------xx--xx--xx--xx--|
|-----------------------------------------------------xx--xx--xx--xx--|
|------------------44444444-------------------2222222-xx4-xx4-xx4-xx4-|
|55555555-22222222-44444444-44444444-55555555-2222222-xx4-xx4-xx4-xx4-|
|55555555-22222222-22222222-44444444-55555555-0000000-xx2-xx2-xx2-xx2-|
|33333333-00000000----------22222222-33333333---------xx--xx--xx--xx--|


|------------------------------------------------------------------------|
|------------------------------------------------------------------------|
|------------------44444444-------------------2-------44444444-----------|
|55555555-22222222-44444444-44444444-55555555-2-------44444444 pickslide-|
|55555555-22222222-22222222-44444444-55555555-0-------22222222-----------|
|33333333-00000000----------22222222-33333333----------------------------|
pm                                                    ********

Link
Guitar 1
|-------------------|--------------------|
|-------------------|--------------------|
|4/12-11---11-11-11-|-11-11-11-11-7--6---|  X2
|-------------------|--------------------|
|2/10--9----9--9--9-|--9--9--9--9-5--4---|
|-------------------|--------------------|

|----------------------------------------------------|
|----------------------------------------------------|
|7/12-11---11-11-11-|-11-11-11-11--7-6666666666666666|
|-------------------|--------------------------------|
|5/10--9----9--9--9-|--9--9--9--9--5-4444444444444444|
|----------------------------------------------------|

Guitar 2
|----------------------------------------------------------------|
|----------------------------------------------------------------|
|4444444444444444444444444444444477777777999999992222222222222222|
|4444444444444444444444444444444477777777999999992222222222222222|
|2222222222222222222222222222222255555555777777772222222222222222|
|----------------------------------------------------------------|

Verse 2
Guitar 1
|--
|--
|4~
|4~  (let ring for 8 bars)
|2~
|--

Guitar 2
|--
|--
|4~
|--   (let ring for 8 bars)
|2~
|--

Guitar 1
|-----------------------------------------------------------|
|-----------------------------------------------------------|
|4-444444444444-44-44444444444-6-7-7777779-999999-444444----|
|4-444444444444-44-44444444444-6-7-7777779-999999-4444442-4-|
|2-222222222222-22-22222222222-4-5-5555557-777777-2222222-4-|
|-------------------------------------------------------0-2-|

Guitar 2 (clean)
|----------|-----------|-----------------|
|----------|-----------|-----------------|
|----------|-----------|-----------------|
|--5-4-----|---5-4-----|---5-4-2---2-----|
|2-----5-4-|-2-----5-4-|-2-------5---4-5-|
|----------|-----------|-----------------|

(distorted)
|----------------|
|----------------|
|444444444444----|
|4444444444442-4-
|2222222222222-4-
|------------0-2-

Chorus 
Guitar 1+2
|-----------------------------------------------------xx--xx--xx--xx--|
|-----------------------------------------------------xx--xx--xx--xx--|
|------------------44444444-------------------2222222-xx4-xx4-xx4-xx4-|
|55555555-22222222-44444444-44444444-55555555-2222222-xx4-xx4-xx4-xx4-|
|55555555-22222222-22222222-44444444-55555555-0000000-xx2-xx2-xx2-xx2-|
|33333333-00000000----------22222222-33333333---------xx--xx--xx--xx--|


|-----------------------------------------------|
|-----------------------------------------------|
|------------------44444444-------------------2-|
|55555555-22222222-44444444-44444444-55555555-2-|
|55555555-22222222-22222222-44444444-55555555-0-|
|33333333-00000000----------22222222-33333333---|

Bridge 
Guitar 1
|----------------------------------------------------------------------|
|----------------------------------------------------------------------|
|4-44444442-7-6-4-44444442-7-6-7-9-9-11-11-11-11/12-11--16-16\14-18-17-|
|----------------------------------------------------------------------|
|2-22222220-5-4-2-22222220-5-4-5-7-7--9--9--9--9/10--9--14-14\12-16-15-|
|----------------------------------------------------------------------|

|-------------------------------------------------------------|
|-------------------------------------------------------------|
|4-44444442-7-6-4-44444442-7-6-4-7-4-4-2-2-2-4-7-777777799999-|
|-------------------------------------------------------------|
|2-22222220-5-4-2-22222220-5-4-2-5-2-2-0-0-0-2-5-555555577777-|
|-------------------------------------------------------------|

Guitar 1+2
|----------------------------------------------------------|
|----------------------------------------------------------|
|2-22222222222222--------------------------------2~--3~--4-|
|2-222222222222222-222222222222225-555555555555552~--3~--4-|
|0-000000000000002-222222222222225-555555555555550~--1~--2-|
|----------------0-000000000000003-33333333333333----------|
pm **************  **************  **************

3/4 part with the waltz feel to it..

Link into Chorus 
Guitar 2
**Note: in 3/4 time
|------------------------|
|------------------------|
|4-1616161616161616161616|  (16's)
|4-----------------------|
|2-1414141414141414141414|  (14's)
|------------------------|
 1+ 2 + 3   1 + 2 + 3   1


Chorus (back to 4/4)
Guitar 1+2
|-----------------------------------------------------xx--xx--xx--xx--|
|-----------------------------------------------------xx--xx--xx--xx--|
|------------------44444444-------------------2222222-xx4-xx4-xx4-xx4-|
|55555555-22222222-44444444-44444444-55555555-2222222-xx4-xx4-xx4-xx4-|
|55555555-22222222-22222222-44444444-55555555-0000000-xx2-xx2-xx2-xx2-|
|33333333-00000000----------22222222-33333333---------xx--xx--xx--xx--|


|------------------------------------------------------|
|------------------------------------------------------|
|------------------44444444-------------------22222222-|
|55555555-22222222-44444444-44444444-55555555-22222222-|
|55555555-22222222-22222222-44444444-55555555-00000000-|
|33333333-00000000----------22222222-33333333----------|

Outro
Guitar 1
|----------------|----------------|
|----------------|----------------|
|4/12-11---111111|11111111-7--6---|  X2
|----------------|----------------|
|2/10--9----9-9-9|-9-9-9-9-5--4---|
|----------------|----------------|

|------------------------------------------------|
|------------------------------------------------|
|7/12-11---111111|11111111--7-6-4444444444444444-|
|----------------|-------------------------------|
|5/10--9----9-9-9|-9-9-9-9--5-4-2222222222222222-|
|------------------------------------------------|

|----------------|----------------|
|----------------|----------------|
|4/12-11---111111|11111111-7--6---|  X2
|----------------|----------------|
|2/10--9----9-9-9|-9-9-9-9-5--4---|
|----------------|----------------|

|---------------------|
|---------------------|
|7/12\11-~--9\7-7\6\4-|
|---------------------|
|5/10\-9~---7\5-5\4\2-|
|---------------------|

Guitar 2
|----------------------------------------------------------------|
|----------------------------------------------------------------|
|4444444444444444444444444444444477777777999999994444444444444444|
|4444444444444444444444444444444477777777999999994444444444444444|
|2222222222222222222222222222222255555555777777772222222222222222|
|----------------------------------------------------------------|

|-------------------------------------------|
|-------------------------------------------|
|444444444444444444444444444444447~------9~-|
|444444444444444444444444444444447~------9~-|
|222222222222222222222222222222225~------7~-|
|-------------------------------------------|
Suggest correction
Creating personal tab
Creating personal tab
You can edit any tab online and save it as your Personal.

You can edit, replace or remove any tab part or add personal notes – all changes will be seen only by you.

Personal tabs can be accessed anytime from any device, even offline.
Learn more »
Give kudos to tab author, rate the tab!
1 2 3 4 5
comments
print report bad tab
guest
Wanna post a correction for this tab? Suggest correction