Oops, an error
Loading. Please wait.

Everchanging tab

version 3
version 3
51,288 views 15 this week
9 commentsread comments
1 2 3 4 5
x 26
add to favorites
×
Save as Personal and add changes to this tab that will be seen only by you. Learn more ›
×
You can save this tab as Personal to edit and correct it or add notes. All changes will be seen only by you. Learn more »
launch autoscroll
font size
0
reset
how to read this tab
guitar tuner
edit
Autoscroll
slow
fast
+/-
esc
set tempo
stop
Author
Difficulty
Artist: Rise Against
Song: Everchanging
Album: The Unraveling (Fat Wreck)
Guitarists: Tim McIlrath, Mr. Prescision

Intro:
  Am     F5     G/C5   Gmaj
e---------------------------------|x4
b---------------------------------|
g---------------------------------|
d---5------3------2----0----------|
a--3-3-3--3-3-3--3-3-3--3-2-3-2---|
e-5---5--1---1--3---3-----------3-|
"In the face, of change, that's whan she turned to me and said, 'I'm not sure anymore'. 
now, amidst the waves and the cloudless skies that blanket the years before I watched my 
wash ashore"

Verse:
(p.m. throughout)
  Am           F5          G/C5       Gmaj
e--------------------------------------------------|x4
b--------------------------------------------------|
g--------------------------------------------------|
d-555555555555-33333333333-2222222222-000000000000-|
a-333333333333-33333333333-3333333333-222222222222-|
e-555555555555-11111111111-3333333333-333333333333-|
"Have you ever been a part of something that you thougfht would never end, and then of 
it did? Have you ever felt the weight inside you, pulling away inside your skin and 
had to give?"

Pre-Chorus:
e------------------------------------------|x1
b------------------------------------------|
g-121212121212121212-101010101010-9-55-7-5-|
d-x-x-x-x-x-x-x-x-x--x-x-x-x-x-x--x-xx-x-x-|
a-101010101010101010-8-8-8-8-8-8--7-33-5-3-|
e------------------------------------------|

Chorus:
  C5     G5     Am     F5     C5     G5     F5
e--------------------------------------------------------|x2
b--------------------------------------------------------|
g-555555----------------------555555---------------------|
d-555555-555555-555555-333333-555555-555555-333333333333-|
a-333333-555555-333333-333333-333333-555555-333333333333-|
e--------333333-555555-111111--------333333-111111111111-|
"And now the lines are drawn, Is this feeling gone? The best parts of this have come and 
and now things will be different. With the reasons clear, we'll spend another year 
direction full of feart and now things will be different."

Post chorus:
 C5 G5
e-----|
b-----|
g-5---|
d-5-5-|
a-3-5-|
e---3-|

(Repeat Verse)
(Repeat Pre-Chorus)
(Repeat Chorus)

Bridge, part 1:
  C5
e----|Hold
b----|C5
g-5~-|power
d-5~-|chord
a-3~-|
e----|
"And now somthing has kept me here too long and you can't leaave me if I'm already gone"

Bridge, part 2:

e----------------------------------------------------|
b----------------------------------------------------|
g-55555--------------------55555---------------------|
d-55555-33333-55555-55555--55555-33333-5555555555555-|
a-33333-33333-33333-55555--33333-33333-5555555555555-|
e-------11111-55555-33333--------11111-3333333333333-|
Repeat till end, then hold C5

            
            
Suggest correction
Creating personal tab
Creating personal tab
You can edit any tab online and save it as your Personal.

You can edit, replace or remove any tab part or add personal notes – all changes will be seen only by you.

Personal tabs can be accessed anytime from any device, even offline.
Learn more »
comments
print report bad tab
9 comments total. Showing first comments.
+1 reply
Razorhead 212 Jul 23, 2006 11:00 PM

Excellent job.

+1 reply
ledzepprules09 10 Aug 15, 2006 12:58 PM

Just one minor problem. Should be:

Am F5 G/C5 Gmaj
e---------------------------------|x4
b---------------------------------|
g---------------------------------|
d---5------3------2----0----------|
a--3-3----3-3----3-3----3-2-3-2---|
e-5---5--1---1--3---3-----------3-|


But other than that this is an Exelent tab. Great work dude.

+1 reply
VIRUSDETECTED 173 Apr 15, 2007 09:41 AM

Good job.

guest
You may want to rate the tab now too:
select rating
Wanna post a correction for this tab? Suggest correction