Oops, an error
Loading. Please wait.

Generation Lost tab

version 1
version 1

Whole song

Interactive

5,231 views 3 this week
5 commentsread comments
1 2 3 4 5
x 6
add to favorites
×
Save as Personal and add changes to this tab that will be seen only by you. Learn more ›
×
You can save this tab as Personal to edit and correct it or add notes. All changes will be seen only by you. Learn more »
launch autoscroll
font size
0
reset
how to read this tab
guitar tuner
edit
Autoscroll
slow
fast
+/-
esc
set tempo
stop
                            RISE AGAINST
                          GENERATION LOST


STANDARD TUNING
EADGBe

intro
----------------------------------------------------------------------------|
----------------------------------------------------------------------------|
-----------6666---------------6666---------------6666-----------------------|
--88888888-6666-6666-88888888-6666-6666-88888888-6666-223344444444-66666666-|
--88888888-4444-6666-88888888-4444-6666-88888888-4444-223344444444-66666666-|
--66666666------4444-66666666------4444-66666666------001122222222-44444444-|

----------------------------------------------------------------------------|
----------------------------------------------------------------------------|
-----------6666---------------6666---------------6666-----------------------|
--88888888-6666-6666-88888888-6666-6666-88888888-6666-223344444444-66666666-|
--88888888-4444-6666-88888888-4444-6666-88888888-4444-223344444444-66666666-|
--66666666------4444-66666666------4444-66666666------001122222222-44444444-|

end on
---
---
---
-8-
-8-
-6-

--------------------------------|
--------------------------------|
--------------------------------|
-4-4-6-11-10-88----88----88-----|x4
-4-4-6-11-10-88----88----88-----|
-2-2-4--9--8-66----66----66-----|


----------------------------------------------------------------------------|
----------------------------------------------------------------------------|
-----------6666---------------6666---------------6666-----------------------|
--88888888-6666-6666-88888888-6666-6666-88888888-6666-223344444444-66666666-|
--88888888-4444-6666-88888888-4444-6666-88888888-4444-223344444444-66666666-|
--66666666------4444-66666666------4444-66666666------001122222222-44444444-|

----------------------------------------------------------------------------|
----------------------------------------------------------------------------|
-----------6666---------------6666---------------6666-----------------------|
--88888888-6666-6666-88888888-6666-6666-88888888-6666-223344444444-66666666-|
--88888888-4444-6666-88888888-4444-6666-88888888-4444-223344444444-66666666-|
--66666666------4444-66666666------4444-66666666------001122222222-44444444-|
repeat for a while

thats it
peace
Suggest correction
Creating personal tab
Creating personal tab
You can edit any tab online and save it as your Personal.

You can edit, replace or remove any tab part or add personal notes – all changes will be seen only by you.

Personal tabs can be accessed anytime from any device, even offline.
Learn more »
comments
print report bad tab
5 comments total. Showing first comments.
0 reply
gunz n zepplin 10 Oct 16, 2005 05:19 AM

nice tab

0 reply
sXe-punk 10 Aug 16, 2006 11:44 AM

not too shabby. sounds good to me

+1 reply
astro0930 256 Oct 16, 2007 12:57 PM

It's mostly right on. The only problem I see is where is guitar 2?

G|-6-8-6-5-6-5-3-1-|

Sounds something like that, i think.

guest
You may want to rate the tab now too:
select rating
Wanna post a correction for this tab? Suggest correction