Oops, an error
Loading. Please wait.

Gethsemane bass

version 1
version 1

Whole song

Interactive

1,325 views 1 this week
2 commentsread comments
1 2 3 4 5
x 4
add to favorites
×
Save as Personal and add changes to this tab that will be seen only by you. Learn more ›
×
You can save this tab as Personal to edit and correct it or add notes. All changes will be seen only by you. Learn more »
launch autoscroll
font size
0
reset
guitar tuner
edit
Autoscroll
slow
fast
+/-
esc
set tempo
stop
Author
Difficulty
GESTHEMANE
RISE AGAINST

tuning: half step down (Eb, G#, C#, F#, Bb, eb)


Main Riff
|-----------------------------44-----------------------------|
|-22222222-5555-4444-00000000----55-44-55-22222222-5555-4444-|
|------------------------------------------------------------|
|------------------------------------------------------------|

|----------4444------|
|-00000000------0000-|
|--------------------|
|--------------------|


chorus
|--------------------------------------|
|--------------00-22222222222222222222-|
|-0-000--------------------------------|
|-------1-1111-------------------------|

|-------------------|
|--------0-2--------|
|-0-----------------|
|-------1-----------|


Bridge 1
|---------------------------|
|---------------------0h2-2-|
|-------------------3-------|
|-00----00----00------------|


Outro
|------------------|
|------------------|
|------------------|
|-0-0-0-0-0-0-3333-|

end on
|---|
|---|
|---|
|-0-|

            
            
Suggest correction
Creating personal tab
Creating personal tab
You can edit any tab online and save it as your Personal.

You can edit, replace or remove any tab part or add personal notes – all changes will be seen only by you.

Personal tabs can be accessed anytime from any device, even offline.
Learn more »
comments
print report bad tab
2 comments total.
0 reply
sevenfoldfan235 10 Jan 13, 2007 03:15 AM

did you like make this in five minutes? sloppy

0 reply
Rightclicked 171 Jun 15, 2009 10:05 AM

so wrong...

guest
You may want to rate the tab now too:
select rating
Wanna post a correction for this tab? Suggest correction