Oops, an error
Loading. Please wait.
We have an official Give It All tab made by UG professional guitarists. Check out the tab »
×
5,230 views 3 this week
4 commentsread comments
1 2 3 4 5
x 8
add to favorites
×
Save as Personal and add changes to this tab that will be seen only by you. Learn more ›
×
You can save this tab as Personal to edit and correct it or add notes. All changes will be seen only by you. Learn more »
launch autoscroll
font size
0
reset
how to read this tab
guitar tuner
backing track
0:00
0:00
edit
Autoscroll
slow
fast
+/-
esc
set tempo
stop
|                             |
|~~Give It All- Rise Against~~|
|_____________________________| 
 Tabbed by: JGunit

        Tuning: Half Step down

       205 bpm

*The (5) in verse are natural harmonics. Lightly touch the string over the 5th fretbar 
 while strumming for that metallic sound.

*The |--| indicate alternate endings (2nd chorus and outro). 
 Confusing in the tablature, but simple if you listen to the song.
     

*Update - fixed outro thanks LithiumPostScpt


Intro: 
eb|-----------------|
Bb|-----------------|
Gb|-----------------|(x2)
Db|-8---4---7---5---|
Ab|-5---5---5---5---|
Eb|-----------------|

Verse: 
eb|-----------------------------------------------------------------------------------------|
Bb|-----(5)-(5)-----(5)-(5)-----(5)-(5)-------------(5)-(5)-----(5)-(5)---------------------|
Gb|-----(5)-(5)-----(5)-(5)-----(5)-(5)-------------(5)-(5)-----(5)-(5)---------------------|(x2)
Db|-----(5)-(5)-----(5)-(5)-----(5)-(5)-8-8-8-8-----(5)-(5)-----(5)-(5)-8-8-8-8-10-10-10-10-|
Ab|-5-5---------5-5---------5-5---------6-6-6-6-5-5---------5-5---------6-6-6-6-8--8--8--8--|
Eb|-3-3---------3-3---------3-3-----------------3-3---------3-3-----------------------------|

eb|---------------------------------------------------------------------|
Bb|---------------------------------------------------------------------|
Gb|---------------------------------------------------------------------|(x2)
Db|---------------------8-8-8-8---------------------8-8-8-8-10-10-10-10-|
Ab|-5-5-5/3-3-5-5-5/3-3-6-6-6-6-5-5-5/3-3-5-5-5/3-3-6-6-6-6-8--8--8--8--|
Eb|-3-3-3/1-1-3-3-3/1-1---------3-3-3/1-1-3-3-3/1-1---------------------|
 *Don't strum at the end of slide.

Chorus: (x2)
eb|-------------------------------------------------------------|
Bb|-------------------------------------------------------------|
Gb|-------------------------------------------------------------|
Db|-------------------------------------------------------------|
Ab|-8--8-8-8-8-8-8--8-8-8--8-8-8--3--3-3-3-3-3-3--3-3-3--3-3-3--|
Eb|-6--6-6-6-6-6-6--6-6-6--6-6-6--1--1-1-1-1-1-1--1-1-1--1-1-1--|

eb|-------------------------------------------------------------|
Bb|-------------------------------------------------------------|
Gb|-------------------------------------------------------------|
Db|-------------------------------8--8-8-8-8-8-8--8-8-8--8-8-8--|
Ab|-5--5-5-5-5-5-5--5-5-5--5-5-5--6--6-6-6-6-6-6--6-6-6--6-6-6--|
Eb|-3--3-3-3-3-3-3--3-3-3--3-3-3--------------------------------|

Pre-Verse:
eb|-------------------------------------------------|
Bb|-----(5)-(5)-----(5)-(5)-----(5)-(5)-----(5)-(5)-|
Gb|-----(5)-(5)-----(5)-(5)-----(5)-(5)-----(5)-(5)-|
Db|-----(5)-(5)-----(5)-(5)-----(5)-(5)-----(5)-(5)-|
Ab|-5-5---------5-5---------5-5---------5-5---------|
Eb|-3-3---------3-3---------3-3---------3-3---------|

Verse:
eb|-----------------------------------------------------------------------------------------|
Bb|-----(5)-(5)-----(5)-(5)-----(5)-(5)-------------(5)-(5)-----(5)-(5)---------------------|
Gb|-----(5)-(5)-----(5)-(5)-----(5)-(5)-------------(5)-(5)-----(5)-(5)---------------------|(x2)
Db|-----(5)-(5)-----(5)-(5)-----(5)-(5)-8-8-8-8-----(5)-(5)-----(5)-(5)-8-8-8-8-10-10-10-10-|
Ab|-5-5---------5-5---------5-5---------6-6-6-6-5-5---------5-5---------6-6-6-6-8--8--8--8--|
Eb|-3-3---------3-3---------3-3-----------------3-3---------3-3-----------------------------|


eb|---------------------------------------------------------------------|
Bb|---------------------------------------------------------------------|
Gb|---------------------------------------------------------------------|(x2)
Db|-------------------------8-8-8-8-----------------8-8-8-8-10-10-10-10-|
Ab|-5-5-5-3-5-5-5-3-5-5-5-3-6-6-6-6-5-5-5-3-5-5-5-3-6-6-6-6-8--8--8--8--|
Eb|-3-3-3-1-3-3-3-1-3-3-3-1---------3-3-3-1-3-3-3-1---------------------|
 PM . . . . . . . . . . . .         . . . . . . . .

Chorus: (x2)
eb|-------------------------------------------------------------|
Bb|-------------------------------------------------------------|
Gb|-------------------------------------------------------------|
Db|-------------------------------------------------------------|
Ab|-8--8-8-8-8-8-8--8-8-8--8-8-8--3--3-3-3-3-3-3--3-3-3--3-3-3--|
Eb|-6--6-6-6-6-6-6--6-6-6--6-6-6--1--1-1-1-1-1-1--1-1-1--1-1-1--|

eb|-----------------------------------------------|--------------|
Bb|-----------------------------------------------|--------------|
Gb|-----------------------------------------------|--------------|
Db|-------------------------------8--8-8-8-8-8-8--|8-8-8--8-8-8--|
Ab|-5--5-5-5-5-5-5--5-5-5--5-5-5--6--6-6-6-6-6-6--|6-6-6--6-6-6--|
Eb|-3--3-3-3-3-3-3--3-3-3--3-3-3------------------|--------------|
                                                   *2nd time end on bridge.
Bridge:
eb|-----------|
Bb|-----------|
Gb|-----------|
Db|-----------|
Ab|-8----8----|
Eb|-6----5----|

Bridge: (x2) 
eb|-----------------------------------------------------|
Bb|-----------------------------------------------------|
Gb|-----------------------------------------------------|
Db|---------------------------8--8--8--8-8--8-8--8--8-8-|
Ab|-5--5--5--5-5--5-5--5--5-5-6--6--6--6-6--6-6--6--6-6-|
Eb|-3--3--3--3-3--3-3--3--3-3---------------------------|

eb|-----------------------------------------------------|
Bb|-----------------------------------------------------|
Gb|-----------------------------------------------------|
Db|-----------------------------------------------------|
Ab|-3--3--3--3-3--3-3--3--3-3-8--8--8--8-7--7-7--7--7-7-|
Eb|-1--1--1--1-1--1-1--1--1-1-6--6--6--6-5--5-5--5--5-5-|

Bridge: 
eb|-------------------------------------------------|
Bb|-------------------------------------------------|
Gb|-------------------------------------------------|
Db|-------------------------8--8--8--8--8--8--8--8--|
Ab|-5--5--5--5--5--5--5--5--6--6--6--6--6--6--6--6--|
Eb|-3--3--3--3--3--3--3--3--------------------------|
 PM .  .  .  .  .  .  .  .  .  .  .  .  .  .  .  .


eb|-------------------------------------------------|
Bb|-------------------------------------------------|
Gb|-------------------------------------------------|
Db|-------------------------------------------------|
Ab|-3--3--3--3--3--3--3--3--8--8--8--8--7--7--7--7--|
Eb|-1--1--1--1--1--1--1--1--6--6--6--6--5--5--5--5--|
 PM .  .  .  .  .  .  .  .  .  .  .  .  .  .  .  .


eb|-------------------------------------------------|
Bb|-------------------------------------------------|
Gb|-------------------------------------------------|
Db|-------------------------8--8--8--8--8--8--8--8--|
Ab|-5--5--5--5--5--5--5--5--6--6--6--6--6--6--6--6--|
Eb|-3--3--3--3--3--3--3--3--------------------------|
 PM .  .  .  .  .  .  .  .  .  .  .  .  .  .  .  .


eb|-------------------------------------------------|
Bb|-------------------------------------------------|
Gb|-------------------------------------------------|
Db|-------------------------------------------------|
Ab|-3--3--3--3--3--3--3--3--3-----------------------|
Eb|-1--1--1--1--1--1--1--1--1-----------------------|
 PM .  .  .  .  .  .  .  .  . 

Chorus: (x2)
eb|-------------------------------------------------------------|
Bb|-------------------------------------------------------------|
Gb|-------------------------------------------------------------|
Db|-------------------------------------------------------------|
Ab|-8--8-8-8-8-8-8--8-8-8--8-8-8--3--3-3-3-3-3-3--3-3-3--3-3-3--|
Eb|-6--6-6-6-6-6-6--6-6-6--6-6-6--1--1-1-1-1-1-1--1-1-1--1-1-1--|

eb|-------------------------------------------------------------|
Bb|-------------------------------------------------------------|
Gb|-------------------------------------------------------------|
Db|-------------------------------8--8-8-8-8-8-8--8-8-8--8-8-8--|
Ab|-5--5-5-5-5-5-5--5-5-5--5-5-5--6--6-6-6-6-6-6--6-6-6--6-6-6--|
Eb|-3--3-3-3-3-3-3--3-3-3--3-3-3--------------------------------|

Outro: (x2)
eb|-------------------------------------------------|
Bb|-------------------------------------------------|
Gb|-15-15-15-15-15-15-15-15-15-15-15-15-15-15-15-15-|
Db|-------------------------------------------------|
Ab|-13-13-13-13-13-13-13-13-13-13-13-13-13-13-13-13-|
Eb|-------------------------------------------------|

eb|-------------------------------------------------|
Bb|-------------------------------------------------|
Gb|-17-17-17-17-17-17-17-17-17-17-17-17-17-17-17-17-|
Db|-------------------------------------------------|
Ab|-15-15-15-15-15-15-15-15-15-15-15-15-15-15-15-15-|
Eb|-------------------------------------------------|

eb|-------------------------------------------------|
Bb|-------------------------------------------------|
Gb|-19-19-19-19-19-19-19-19-19-19-19-19-20-20-20-20-|
Db|-------------------------------------------------|
Ab|-17-17-17-17-17-17-17-17-17-17-17-17-18-18-18-18-|
Eb|-------------------------------------------------|

eb|-------------------------|-------------------------|-------------------------|
Bb|-18-18-18-18-18-18-18-18-|-18-18-18-18-18-18-18-18-|-------------------------|
Gb|-------------------------|-------------------------|-19-19-19-19-19-19-19-19-|
Db|-15-15-15-15-15-15-15-15-|-15-15-15-15-15-15-15-15-|-------------------------|
Ab|-------------------------|-------------------------|-17-17-17-17-17-17-17-17-|
Eb|-------------------------|-------------------------|-------------------------|
                              *1st Ending              *2nd Ending



eb|-------------|
Bb|-------------|
Gb|-------------|
Db|-------------|
Ab|--3----------|
Eb|--1----------|



            
            
Suggest correction
Creating personal tab
Creating personal tab
You can edit any tab online and save it as your Personal.

You can edit, replace or remove any tab part or add personal notes – all changes will be seen only by you.

Personal tabs can be accessed anytime from any device, even offline.
Learn more »
comments
print report bad tab
4 comments total. Showing first comments.
0 reply
JGunit 52 Jun 26, 2009 02:16 PM

oops im an idiot i can't count on the chorus... fixing it.

0 reply
Cefor 10 Sep 07, 2009 04:57 AM

You've put the tab at half-step down, which is how Rise Against play many of their songs, but you know that all you need to do to play it in standard tunig is use F#5 instead of G5 and basically move all notes to the fret below, 3 to 2, 5 to 4 etc.

0 reply
JGunit 52 Sep 22, 2009 04:58 AM

i know you can play it in standard, i chose to post this tab because this IS how rise against plays ALL of their songs so when i play rise against my guitar is tuned 1/2 step down anyways

guest
You may want to rate the tab now too:
select rating
Wanna post a correction for this tab? Suggest correction