Oops, an error
Loading. Please wait.

Good Left Undone Bass

version 2
version 2

Interactive

4,797 views 3 this week
2 commentsread comments
1 2 3 4 5
x 6
add to favorites
launch autoscroll
font size
0
reset
guitar tuner
Autoscroll
slow
fast
+/-
esc
set tempo
stop
Author
----------------------------------------------------------------------------
	            The Good Left Undone - Rise Against
----------------------------------------------------------------------------

Tabbed By: James Makowiecki

Tuning: Standard


G|-----------------------------------------------------------------|
D|-----------------------------------------------------------------|x2
A|-44444444444444-0000000000007-7777777-2222222-4444444-6-6-7-6-6-6|
E|-----------------------------------------------------------------|

G|---------------------------------------------------------------|
D|---------------------------------------------------------------|
A|----------------4444444444444------------------44444444444444--|
E|-55555555555555---------------5555555555555555-----------------|

G|------------------------------------------------------------|
D|------------------------------------------------------------|
A|----------------4444444444444------------------4444-2222-0--|
E|-55555555555555---------------0000000-22222222--------------|

G|-----------------------------------------------------------------|
D|-----------------------------------------------------------------|x2
A|-4-4-4-4-4-4-4-4-----------------2-2-2-2-2-2-2-2-----------------|
E|-----------------0-0-0-0-0-0-0-0-----------------5-5-5-5-5-5-5-5-|
pause

G|-----------------------------------------------------------------|
D|-----------------------------------------------------------------|x2
A|-44444444444444-0000000000007-7777777-2222222-4444444-6-6-7-6-6-6|
E|-----------------------------------------------------------------|

G|---------------------------------------------------------------|
D|---------------------------------------------------------------|
A|----------------4444444444444------------------44444444444444--|
E|-55555555555555---------------5555555555555555-----------------|

G|------------------------------------------------------------|
D|------------------------------------------------------------|
A|----------------4444444444444------------------4444-2222-0--|
E|-55555555555555---------------0000000-22222222--------------|

G|-----------------------------------------------------------------|
D|-----------------------------------------------------------------|x2
A|-4-4-4-4-4-4-4-4-----------------2-2-2-2-2-2-2-2-----------------|
E|-----------------0-0-0-0-0-0-0-0-----------------5-5-5-5-5-5-5-5-|

G|-----------------------------------------------------------------|
D|-----------------------------------------------------------------|x2
A|-4-4-4-4-4-4-4-4-----------------2-2-2-2-2-2-2-2-----------------|
E|-----------------0-0-0-0-0-0-0-5-----------------5-5-5-5-5-5-5-7-|

Interlude
G|---------------------------------------------------------|
D|---------------------------------------------------------|x2
A|-4-4--4-4-4--4---------------2-2--2-2-2--2---------------|
E|---------------0-0--0-0-0--0---------------5-5--5-5-5--5-|

G|-----------------------------------------------------------------|
D|-----------------------------------------------------------------|x4
A|-4-4-4-4-4-4-4-4-----------------2-2-2-2-2-2-2-2-----------------|
E|-----------------0-0-0-0-0-0-0-0-----------------5-5-5-5-5-5-5-5-|


| /  slide up
| \  slide down
| h  hammer-on
| p  pull-off
| ~  vibrato
| +  harmonic
| x  Mute note
============================================================================
Suggest correction
comments
print report bad tab
2 comments total.
0 reply
Closet 30 Apr 12, 2007 02:58 PM

Yeah, um... So much better than my version. Lol.

0 reply
chromaticvision 4,025 Aug 26, 2008 04:54 PM

so you wrote the root notes, but where are the fills? you missed out so much. if you want corrections i'll post them. or i'll add my own version.

guest
You may want to rate the tab now too:
select rating
Wanna post a correction for this tab? Suggest correction