Oops, an error
Loading. Please wait.

Good Left Undone Acoustic tab

version 3
version 3

Whole song

Interactive

457 views 3 this week
no commentswrite comment
1 2 3 4 5
3 more votes to show rating
add to favorites
×
Save as Personal and add changes to this tab that will be seen only by you. Learn more ›
×
You can save this tab as Personal to edit and correct it or add notes. All changes will be seen only by you. Learn more »
launch autoscroll
font size
0
reset
how to read this tab
guitar tuner
edit
Autoscroll
slow
fast
+/-
esc
set tempo
stop
----------------------------------------------------------------------------
                THE GOOD LEFT UNDONE ACOUSTIC - Rise Against
----------------------------------------------------------------------------
Tabbed By: MrPurple5106
Email: mrpurple5106@gmail.com
Tuning: Eb

Keep in mind that this is an acoustic version I wrote myself. If you want to learn the actual song, do not learn
from this tab. If you do already know it, here’s an acoustic version

Intro
E|-------------------------------------------------------------------------------------------|
B|-------------------------------------------------------------------------------------------|
G|-7-7-7-7-7-7-7---7-7-7-7-7-7-7---7-7-7-7-7-7-7---7-7-7-7-7-7-7-----------------------------|
D|-x-x-x-x-x-x-x---x-x-x-x-x-x-x---x-x-x-x-x-x-x---x-x-x-x-x-x-x-----------------------------|
A|-5-5-5-5-5-5-5---5-5-5-5-5-5-5---5-5-5-5-5-5-5---5-5-5-5-5-5-5-----------------------------|
E|-------------------------------------------------------------------------------------------|

Verse x2
E|-------------------------------------------------------------------------------------------|
B|-------------------------------------------------------------------------------------------|
G|-------------------------------------------------------------------------------------------|
D|-7-7-7-7-7-7-7-7-7-7-7-7-7-7-7-7---8-8-8-8-8-8-8-8-8-8-8-8-8-8-8-8-------------------------|
A|-5-5-5-5-5-5-5-5-5-5-5-5-5-5-5-5---5-5-5-5-5-5-5-5-5-5-5-5-5-5-5-5-------------------------|
E|-------------------------------------------------------------------------------------------|
                                                     
E|-------------------------------------------------------------------------------------------| 
B|-------------------------------------------------------------------------------------------|
G|-------------------------------------------------------------------------------------------|
D|-10-10-10-10-10-10-10-10---8--8--8--8--8--8--8--8----7-7-7-7-7-7-7-7---10--10--10-10-10-10-|
A|-10-10-10-10-10-10-10-10---10-10-10-10-10-10-10-10---8-8-8-8-8-8-8-8---7---7---8--7--7--7--|
E|-----------------------------------------------------------------------0---0---0--0--0--0--|

Pre-Chorus
E|-------------------------------------------------------------------------------------------|
B|-------------------------------------------------------------------------------------------|
G|-------------------------------------------------------------------------------------------|
D|---------------------------------7--7-7--7-7-7-8--8-8--5--5-5------------------------------|
A|-8-8-8-8-8-8-8-8-5-5-5-5-3-3-3-3-5--5-5--5-5-5-5--5-5--5--5-5------------------------------|
E|-6-6-6-6-5-5-5-5-3-3-3-3-1-1-1-1-----------------------------------------------------------|

E|-------------------------------------------------------------------------------------------|
B|-------------------------------------------------------------------------------------------|
G|-------------------------------------------------------------------------------------------|
D|---------------------------------7--7-7--7-7-7-5--5-5--5-5-5-3--3-3--3-5-3-2---------------|
A|-8-8-8-8-8-8-8-8-5-5-5-5-3-3-3-3-5--5-5--5-5-5-5--5-5--5-5-5-5--5-5--5-5-5-3---------------|
E|-6-6-6-6-5-5-5-5-3-3-3-3-1-1-1-1-----------------------------------------------------------|


Chorus
E|-------------------------------------------------------------------------------------------|
B|-------------------------------------------------------------------------------------------|
G|-7-7-7-7-7-7-7-7-10-10-10-10-10-10-10-10---------------------------------------------------|
D|-7-7-7-7-7-7-7-7-10-10-10-10-10-10-10-10-10-10-10-10-10-10-10-10-8-8-8-8-8-8-8-8-----------|
A|-5-5-5-5-5-5-5-5-8--8--8--8--8--8--8--8--10-10-10-10-10-10-10-10-8-8-8-8-8-8-8-8-----------|
E|-5-5-5-5-5-5-5-5-8--8--8--8--8--8--8--8--8--8--8--8--8--8--8--8--6-6-6-6-6-6-6-6-----------|
Intro

Verse

Pre-Chorus

Chorus

Solo x2
E|-------------------------------------------------------------------------------------------|
B|-------------------------------------------------------------------------------------------|
G|-7-7-7-9-9-9-10-10---------9-9-9-10-10-12-12-12-12-12-12-12-12-10-10-10-10-10-10-10-10-----|
D|-7-7-7-7-7-7-7--7-10-10-10-x-x-x-x--x--10-10-10-10-10-10-10-10-8--8--8--8--8--7--7--7------|
A|-0-0-0-0-0-0-0--0-7--7--7--7--7--7--7--7---------------------------------------------------|
E|------------------0--0--0--0--0--0--0--0---------------------------------------------------|

Bridge x4
E|---------1---------------1---------------0h1-0---------------------------------------------|
B|-----3-----3---3-----3-----3---3-----3---------3---------3-----3---------------------------|
G|---2---2-----2-----2---2-----2---------0-------------3-----3-------------------------------|
D|-0---------------3-----------------2---------------3---3-----3-----------------------------|
A|---------------------------------3---------------1-----------------------------------------|
E|-------------------------------------------------------------------------------------------|

Chorus

Outro
E|-------------------------------------------------------------------------------------------|
B|-------------------------------------------------------------------------------------------|
G|-7-7-7-9-9-9-10-10---------9-9-9-10-10-12-12-12-12-12-12-12-12-10-10-10-10-10-10-10-10-----|
D|-7-7-7-7-7-7-7--7-10-10-10-x-x-x-x--x--10-10-10-10-10-10-10-10-8--8--8--8--8--7--7--7------|
A|-0-0-0-0-0-0-0--0-7--7--7--7--7--7--7--7---------------------------------------------------|
E|------------------0--0--0--0--0--0--0--0---------------------------------------------------|

E|-------------------------------------------------------------------------------------------|
B|-------------------------------------------------------------------------------------------|
G|-7-7-7-9-9-9-10-10---------9-9-9-10-10-12-12-12-12-12-12-12-12-10-10-10-10-10-10-10-10-7+--|
D|-7-7-7-7-7-7-7--7-10-10-10-x-x-x-x--x--10-10-10-10-10-10-10-10-8--8--8--8--8--7--7--7--7+--|
A|-0-0-0-0-0-0-0--0-7--7--7--7--7--7--7--7-----------------------------------------------5+--|
E|------------------0--0--0--0--0--0--0--0-----------------------------------------------5+--|


************************************

| /   slide up
| \   slide down
| h   hammer-on
| p   pull-off
| ~   vibrato
| +   harmonic
| x   Mute note
| b   Bend
| pb  Pre-bend
| br  Bend release
| pbr Pre-bend release
| brb Bend release bend

************************************
Suggest correction
Creating personal tab
Creating personal tab
You can edit any tab online and save it as your Personal.

You can edit, replace or remove any tab part or add personal notes – all changes will be seen only by you.

Personal tabs can be accessed anytime from any device, even offline.
Learn more »
Give kudos to tab author, rate the tab!
1 2 3 4 5
comments
print report bad tab
guest
You may want to rate the tab now too:
select rating
Wanna post a correction for this tab? Suggest correction