Oops, an error
Loading. Please wait.

Good Left Undone bass

version 4
version 4

Interactive

6,809 views 6 this week
2 commentsread comments
1 2 3 4 5
x 5
add to favorites
×
Save as Personal and add changes to this tab that will be seen only by you. Learn more ›
×
You can save this tab as Personal to edit and correct it or add notes. All changes will be seen only by you. Learn more »
launch autoscroll
font size
0
reset
guitar tuner
edit
Autoscroll
slow
fast
+/-
esc
set tempo
stop
Note* Tabbed out by ear, i find this tab to be at least in the 90% areas.
Tuning is Drop D
The numbers that are close together means the song goes really fast so try to find the 
in the song and i fyou use a pick it is best to strum up and down and if you use fingers 
do your thing ;D

Techniques Used:
h=hammer on
s=slide

Main Verse(x2)
G:----------------------------------------------------------------------|
D:----------------------------------------------------------------------|
A:-44444444444444-000000000000-5h7777777s222222s999999-11-11h12-11-9----|
D:----------------------------------------------------------------------|

After Main Verse (Where he yells "BUT I KNOW!!")
G:----------------------------------------------------------------------|
D:----------------------------------------------------------------------|
A:-2s9-(11)(11)(11)(11)-9999-7777-2222----------------------------------|
D:----------------------------------------------------------------------|

Pre-Chorus(PART1)(x2)
G:----------------------------------------------------------------------|
D:----------------------------------------------------------------------|
A:-4444-4-44-4-4s11(11)(11)(11)-9999-7777-2222--------------------------|
D:----------------------------------------------------------------------|

Pre-Chorus(Part2)
G:-----------------------------------|
D:-----------------------------------|
A:---------------0-0-0h2-2-2-(pause)-|
D:-2-2-2-4-4-4-4---------------------|

Chorus(x2)
G:-----------------------------------------------------------------------|
D:-----------------------------------------------------------------------|
A:-4-4-4-4-4-4-4---------------2-2-2-2-2-2-2-0-0-0-0-0-0-0---------------|
D:---------------2-2-2-2-2-2-2-------------------------------------------|


Main Verse(x2)
G:----------------------------------------------------------------------|
D:----------------------------------------------------------------------|
A:-44444444444444-000000000000-5h7777777s222222s999999-11-11h12-11-9----|
D:----------------------------------------------------------------------|

After Main Verse (Where he yells "BUT I KNOW!!")
G:----------------------------------------------------------------------|
D:----------------------------------------------------------------------|
A:-2s9-(11)(11)(11)(11)-9999-7777-2222----------------------------------|
D:----------------------------------------------------------------------|

Pre-Chorus(PART1)(x2)
G:----------------------------------------------------------------------|
D:----------------------------------------------------------------------|
A:-4444-4-44-4-4s11(11)(11)(11)-9999-7777-2222--------------------------|
D:----------------------------------------------------------------------|

Pre-Chorus(Part2)
G:-----------------------------------|
D:-----------------------------------|
A:---------------0-0-0h2-2-2-(pause)-|
D:-2-2-2-4-4-4-4---------------------|

Chorus(x2)
G:-----------------------------------------------------------------------|
D:-----------------------------------------------------------------------|
A:-4-4-4-4-4-4-4---------------2-2-2-2-2-2-2-0-0-0-0-0-0-0---------------|
D:---------------2-2-2-2-2-2-2-------------------------------------------|

Bridge(Not AS Fast as Verse..)(x2)
G:------------------------------------------------------------------------|
D:-------------------999999-(11)-9-7777777--------------------------------|
A:-44444444-77777777------------------------------------------------------|
D:------------------------------------------------------------------------|

Interlude(Bass Only)(x2)
G:----------------------------------------------------------|
D:----------------------------------------------------------|
A:-4-4--4-4-4--4---------------2-2--2-2-2--2-0-0--0-0-0-----|
D:---------------2-2--2-2-2--2------------------------------|

Chorus(x2)

Outro Chorus(aprrox. 2:43) (x2)
G:-----------------------------------------------------------------|
D:-----------------------------------------------------------------|
A:-4-4-4-4-4-4-4-----------------0-2-4-2-2-2-2-4-2-0-0-0-0-0-0-0---|
D:---------------2-2-2-2-2-2-2-2-----------------------------------|

Listen Carefully and You should be able to hear all the fill-ins, especially in the 
chorus.
Enjoy!

Tabbed by: "dOMB'

Questions or comments email at:
Cor_vettec6@yahoo.com
or
Evomrix@tmail.com
Suggest correction
Creating personal tab
Creating personal tab
You can edit any tab online and save it as your Personal.

You can edit, replace or remove any tab part or add personal notes – all changes will be seen only by you.

Personal tabs can be accessed anytime from any device, even offline.
Learn more »
comments
print report bad tab
2 comments total.
-1 reply
Hobo11 253 Jun 23, 2008 06:30 PM

This one sounds more correct to me. The other ones were too simple. And most Rise Against songs are in Drop D, so this makes more sense too. =] Good job

+1 reply
Hobo11 253 Jun 23, 2008 07:25 PM

But I think the part before the bridge might be

A|-44444444-------0-1-22222-4-2-00000000-|
D|---------22222-4-----------------------| x2

guest
You may want to rate the tab now too:
select rating
Wanna post a correction for this tab? Suggest correction