Oops, an error
Loading. Please wait.

Halfway There tab

version 2
version 2

Whole song

Interactive

571 views 1 this week
no commentswrite comment
1 2 3 4 5
2 more votes to show rating
add to favorites
×
Save as Personal and add changes to this tab that will be seen only by you. Learn more ›
×
You can save this tab as Personal to edit and correct it or add notes. All changes will be seen only by you. Learn more »
launch autoscroll
font size
0
reset
how to read this tab
guitar tuner
edit
Autoscroll
slow
fast
+/-
esc
set tempo
stop
Song:Halfway There
Band:Rise Against
Tabbed by Atticus-Black
Email:Finalblast@msn.com

Standard Tuning

INTRO

Lead
e|------------------------------------------------|
B|------------------------------------------------|
G|-13~-13/8~-8/11~-11/8~-8/13~-15-16-15-8~-8/11/8~|
D|------------------------------------------------|
A|------------------------------------------------|
E|------------------------------------------------|

Rhythm
e|-------------------------|                    e|-------------|
B|-------------------------|                    B|-------------|
G|-------------------------|                    G|-------------|
D|--6-6-6-6-6-6-4--4-4-4/6-| x7                 D|-6-6-6-4~----| End On
A|--4-4-4-4-4-4-4--2-2-2/4-|                    A|-4-4-4-2~----|
E|-------------------------|                    E|-------------|
    . . . . . . .  . . . .                         . . .


PRE-VERSE (x2)

Lead
e|----------------------------------|
B|----------------------------------|
G|--6-x-9-x-8-x-4-x-----------------|
D|--6-x-9-x-8-x-4-x-6-6-6-6---------|
A|--4-x-7-x-6-x-2-x-6-6-6-6---------|
E|------------------4-4-4-4---------|

e|----------------------------------|
B|----------------------------------|
G|--6-x-9-x-8-x-4-x-11-11-11-11-----|
D|--6-x-9-x-8-x-4-x-9--9--9--9------|
A|--4-x-7-x-6-x-2-x-9--9--9--9------|
E|----------------------------------|

e|----------------------------------|
B|----------------------------------|
G|--6-x-9-x-8-x-4-x-----------------|
D|--6-x-9-x-8-x-4-x-6-6-6-6---------|
A|--4-x-7-x-6-x-2-x-6-6-6-6---------|
E|------------------4-4-4-4---------|

e|-----------------------------|
B|-----------------------------|
G|----------9-8-8-9-8-8-9-8----|
D|--9-9-9-9--------------------|
A|--7-7-7-7--------------------|
E|-----------------------------|

Rhythm
e|----------------------------------|
B|----------------------------------|
G|--6-x-9-x-8-x-4-x-----------------|
D|--6-x-9-x-8-x-4-x-6-6-6-6---------| x3
A|--4-x-7-x-6-x-2-x-6-6-6-6---------|
E|------------------4-4-4-4---------|

e|----------------------------------|
B|----------------------------------|
G|----------------------------------|
D|-6-6-6-9-9-9-9-9-9-9-9------------|
A|-6-6-6-7-7-7-7-7-7-7-7------------|
E|-4-4-6----------------------------|

VERSE

Lead
e|--------------------------------------------------------------|
B|--------------------------------------------------------------|
G|--------------------------------------------------------------|
D|--6-6-6-6-6-(x4)----2-2-2-2-2-2-2-2-(x2)----------------------| x4
A|--4-4-4-4-4---------0-0-0-0-0-0-0-0------4-4-4-4-4-4-4-4-(x2)-|
E|-----------------------------------------2-2-2-2-2-2-2-2------|
      .   .

Rhythm
e|--------------------------|
B|--------------------------|
G|--------------------------|
D|-9~---------99-9~---------|
A|-7~---------77-7~---------|
E|--------------------------|
  Is this.... Or is This


CHORUS

Lead
e|----------------------------------------------------------------------------------------------------------|
B|----------------------------------------------------------------------------------------------------------|
G|-9-9-9-9/8-8-8-8-8-8/11-11-11-11/9-9-9-9-9-9/11-11-11-11/13-13-13-13-13-11/16-16-16-16-16-16-16-16-16-16--|
D|-x-x-x-x/x-x-x-x-x-x/x--x--x--x-/x-x-x-x-x-x/x--x--x--x-/x--x--x--x--x--x-/x--x--x--x--x--x--x--x--x--x---| x2
A|-7-7-7-7/6-6-6-6-6-6/9--9--9--9-/7-7-7-7-7-7/9--9--9--9-/11-11-11-11-11-13/14-14-14-14-14-14-14-14-14-14--|
E|----------------------------------------------------------------------------------------------------------|

Rhythm
e|------------------------------|      |--------------|
B|------------------------------|      |--------------|
G|--6---------------------------|      |--------------|
D|--6(x10)-2------4------6------|x2    |-/Pick Slide/-|End of Second
A|--4------2(x10)-4(x10)-6(x10)-|      |-/Pick Slide/-|
E|---------0------2------4------|      |-/Pick SLide/-|
                                          Wooaawooo

PRE-VERSE

Lead (x2)
e|----------------------------------|
B|----------------------------------|
G|--6-x-9-x-8-x-4-x-----------------|
D|--6-x-9-x-8-x-4-x-6-6-6-6---------|
A|--4-x-7-x-6-x-2-x-6-6-6-6---------|
E|------------------4-4-4-4---------|

e|----------------------------------|
B|----------------------------------|
G|--6-x-9-x-8-x-4-x-11-11-11-11-----|
D|--6-x-9-x-8-x-4-x-9--9--9--9------|
A|--4-x-7-x-6-x-2-x-9--9--9--9------|
E|----------------------------------|

e|----------------------------------|
B|----------------------------------|
G|--6-x-9-x-8-x-4-x-----------------|
D|--6-x-9-x-8-x-4-x-6-6-6-6---------|
A|--4-x-7-x-6-x-2-x-6-6-6-6---------|
E|------------------4-4-4-4---------|

e|-----------------------------|
B|-----------------------------|
G|----------9-8-8-9-8-8-9-8----|
D|--9-9-9-9--------------------|
A|--7-7-7-7--------------------|
E|-----------------------------|

Rhythm
e|----------------------------------|
B|----------------------------------|
G|--6-x-9-x-8-x-4-x-----------------|
D|--6-x-9-x-8-x-4-x-6-6-6-6---------| x3
A|--4-x-7-x-6-x-2-x-6-6-6-6---------|
E|------------------4-4-4-4---------|

e|----------------------------------|
B|----------------------------------|
G|----------------------------------|
D|-6-6-6-9-9-9-9-9-9-9-9------------|
A|-6-6-6-7-7-7-7-7-7-7-7------------|
E|-4-4-6----------------------------|

VERSE

Lead
e|--------------------------------------------------------------|
B|--------------------------------------------------------------|
G|--------------------------------------------------------------|
D|--6-6-6-6-6-(x4)----2-2-2-2-2-2-2-2-(x2)----------------------| x2
A|--4-4-4-4-4---------0-0-0-0-0-0-0-0------4-4-4-4-4-4-4-4-(x2)-|
E|-----------------------------------------2-2-2-2-2-2-2-2------|
      .   .

Rhythm
e|------------|
B|------------|
G|------------|
D|-----9~-----|
A|-----7~-----|
E|------------|
  This is....

CHORUS

Lead
e|----------------------------------------------------------------------------------------------------------|
B|----------------------------------------------------------------------------------------------------------|
G|-9-9-9-9/8-8-8-8-8-8/11-11-11-11/9-9-9-9-9-9/11-11-11-11/13-13-13-13-13-11/16-16-16-16-16-16-16-16-16-16--|
D|-x-x-x-x/x-x-x-x-x-x/x--x--x--x-/x-x-x-x-x-x/x--x--x--x-/x--x--x--x--x--x-/x--x--x--x--x--x--x--x--x--x---| x2
A|-7-7-7-7/6-6-6-6-6-6/9--9--9--9-/7-7-7-7-7-7/9--9--9--9-/11-11-11-11-11-13/14-14-14-14-14-14-14-14-14-14--|
E|----------------------------------------------------------------------------------------------------------|

Rhythm
e|------------------------------|
B|------------------------------|
G|--6---------------------------|
D|--6(x10)-2------4------6------| x2
A|--4------2(x10)-4(x10)-6(x10)-|
E|---------0------2------4------|


BRIDGE

Lead
e|------------------------|------------------|   e|--------------------------|
B|------------------------|------------------|   B|--------------------------|
G|--9~-999~-99/8-7-10-8-8/|11-13-11-9-8-10-8-|   G|-11~-111111~-13-11-9-8-11-|
D|--x~-xxx~-xx/x-x-x--x-x/|x--x--x--x-x-x--x-|x2 D|-x~--x-x-x~--x--x--x-x-x--|
A|--7~-777~-77/6-5-8--6-6/|9--11-9--7-6-8--6-|   A|-9~--9-9-9~--11-9--7-6-9--|
E|------------------------|------------------|   E|--------------------------|
   Wooaoo    Your voice     Wooaoo Your wasted     Wooaoo Give me one reason
                            Wooaoo Give me one

Rhythm

e|--------------------------------10~-------------------------|
B|--13-13-13-12-0~----13-13-13-12--------13-13-13-12-0~-------|
G|------------------------------------------------------------| This part was Tricky
D|------------------------------------------------------------|
A|------------------------------------------------------------|
E|------------------------------------------------------------|
   Reason....         Wooaoo             Reason


PRE-VERSE

Lead
e|----------------------------------|
B|----------------------------------|
G|--6-x-9-x-8-x-4-x-----------------|
D|--6-x-9-x-8-x-4-x-6-6-6-6---------|
A|--4-x-7-x-6-x-2-x-6-6-6-6---------|
E|------------------4-4-4-4---------|

e|----------------------------------|
B|----------------------------------|
G|--6-x-9-x-8-x-4-x-11-11-11-11-----|
D|--6-x-9-x-8-x-4-x-9--9--9--9------|
A|--4-x-7-x-6-x-2-x-9--9--9--9------|
E|----------------------------------|

e|----------------------------------|
B|----------------------------------|
G|--6-x-9-x-8-x-4-x-----------------|
D|--6-x-9-x-8-x-4-x-6-6-6-6---------|
A|--4-x-7-x-6-x-2-x-6-6-6-6---------|
E|------------------4-4-4-4---------|

e|-----------------------------|
B|-----------------------------|
G|----------9-8-8-9-8-8-9-8----|
D|--9-9-9-9--------------------|
A|--7-7-7-7--------------------|
E|-----------------------------|

Rhythm
e|----------------------------------|
B|----------------------------------|
G|--6-x-9-x-8-x-4-x-----------------|
D|--6-x-9-x-8-x-4-x-6-6-6-6---------| x3
A|--4-x-7-x-6-x-2-x-6-6-6-6---------|
E|------------------4-4-4-4---------|

e|----------------------------------|
B|----------------------------------|
G|----------------------------------|
D|-6-6-6-9-9-9-9-9-9-9-9------------|
A|-6-6-6-7-7-7-7-7-7-7-7------------|
E|-4-4-6----------------------------|


END ON

Lead
e|-------|
B|-------|
G|-11~---|
D|-x-~---|
A|-9-~---|
E|-------|

Rhythm
e|-------|
B|-------|
G|-8~----|
D|-8~----|
A|-6~----|
E|-------|

There done my first tab dont think alot of ppl listen to Halfway there but w/e if u do
me some comments and maybe a lil help with the Rhythm on the Bridge thanks.

            
            
Suggest correction
Creating personal tab
Creating personal tab
You can edit any tab online and save it as your Personal.

You can edit, replace or remove any tab part or add personal notes – all changes will be seen only by you.

Personal tabs can be accessed anytime from any device, even offline.
Learn more »
Give kudos to tab author, rate the tab!
1 2 3 4 5
comments
print report bad tab
guest
You may want to rate the tab now too:
select rating
Wanna post a correction for this tab? Suggest correction