Oops, an error
Loading. Please wait.

Heaven Knows Bass Tab

version 3
version 3

Whole song

Interactive

2,541 views 1 this week
no commentswrite comment
1 2 3 4 5
please rate
add to favorites
launch autoscroll
font size
0
reset
guitar tuner
Tab Pro tools
  • play this tab
  • loop segment
  • change instrument
  • show fretboard
  • metronome
×
Best way to learn
"Heaven Knows"
Autoscroll
slow
fast
+/-
esc
set tempo
stop
Contributor
Difficulty
novice
Rise Against
Heaven Knows

Intro
G|------------------------------------------------------------------|
D|------------------------------------------------------------------|
A|-44-4-44-4--------------------------44-4-44-4-6-6-666------2-2222-|
E|----------55-5-54200-0-00-0-22-245-5-----------------5-5555-------| x2

G|-------------------|
D|-------------------|
A|-----------------2-|
E|-5555555555555555--| x1
The 2 gets cut off.

Verse
G|----------------------------------------------------------------------|
D|-----------------------------------------------------------------2p1--|
A|-44444444444444444444444444444444----------2-22------4-4444444444---24|
E|---------------------------------5-55-2-22------4-44------------------| x1

G|----------------------------------------------------------------------|
D|-----------------------------------------------------------------2p1--|
A|-44444444444444444444444444444444----------2-22------4-4444444444-----|
E|---------------------------------5-55-2-22------4-44------------------| x1

Pre-Chorus
G|----------------------------------|
D|----------------------------------|
A|-----------------2222222222222222-|
E|-5555555555555555-----------------| x2

Chorus
G|---------------------------------|
D|---------------------------------|
A|-4-4-----4-4---------------------|
E|-----024-----024-0-0-000-2-2-222-| x1

G|---------------------------------|
D|---------------------------------|
A|-4-4-----4-4---------------------|
E|-----024-----024-7-7-777-9-9-999-| x1

G|---------------------------------|
D|---------------------------------|
A|-4-4-----4-4---------------------|
E|-----024-----024-0-0-000-2-2-222-| x1

G|-------------------|
D|-------------------|
A|-----------------2-|
E|-5555555555555555--| x1
The 2 gets cut off.

Verse 2
G|----------------------------------------------------------------------|
D|-----------------------------------------------------------------2p1--|
A|-44444444444444444444444444444444----------2-22------4-4444444444---24|
E|---------------------------------5-55-2-22------4-44------------------| x1

G|----------------------------------------------------------|
D|------------------------------------------------------2p1-|
A|-4444444444444444/16*-----------2-22------4-4444444444----|
E|----------------------5-55-2-22------4-44-----------------| x1
*This note is sixteen and it is played 16 times.

Repeat Pre-Chorus
Repeat Chorus

End Chorus on
A|-4~|

Bridge
G|-------|
D|-------|
A|-4---2-|
E|-------| x1


G|-------------------------------------------------------------------|
D|-------------------------------------------------------------------|
A|-----------------------------------2-2-2-2-2-2-2-2-2-2-2-2-4-6-4-2-|
E|-5-5-5-5-5-5-5-5--0-0-0-0-0-0-0-0----------------------------------| x1

G|-------------------------------------------------------------------|
D|-------------------------------------------------------------------|
A|-----------------------------------2-2-2-2-2-2-2-2-2-2-2-2-4-4-6-6-|
E|-5-5-5-5-5-5-5-5--0-0-0-0-0-0-0-0----------------------------------| x1

G|-------------------------------------------------------------------|
D|-------------------------------------------------------------------|
A|-----------------------------------2-2-2-2-2-2-2-2-2-2-2-2-4-6-4-2-|
E|-5-5-5-5-5-5-5-5--0-0-0-0-0-0-0-0----------------------------------| x1

G|-------------------------------------------------------------------|
D|-------------------------------------------------------------------|
A|-----------------------------------2-2-2-2-2-2-2-2-2-2-2-2-4-4-6-6-|
E|-5-5-5-5-5-5-5-5--0-0-0-0-0-0-0-0----------------------------------| x1

G|-------------------------------------------------------------------|
D|-------------------------------------------------------------------|
A|-----------------------------------2-2-2-2-2-2-2-2-2-2-2-2-2-2-2-2-|
E|-5-5-5-5-5-5-5-5--0-0-0-0-0-0-0-0----------------------------------| x4

G|-------------------------------------------------------------------|
D|-------------------------------------------------------------------|
A|-----------------------------------2-2-2-2-2-2-2-2-2-2-2-2-4-6-4-2-|
E|-5-5-5-5-5-5-5-5--0-0-0-0-0-0-0-0----------------------------------| x1

G|-------------------------------------------------------------------|
D|-------------------------------------------------------------------|
A|-----------------------------------2-2-2-2-2-2-2-2-2-2-2-2-4-4-6-6-|
E|-5-5-5-5-5-5-5-5--0-0-0-0-0-0-0-0----------------------------------| x1

G|-------------------------------------------------------------------|
D|-------------------------------------------------------------------|
A|-----------------------------------2-2-2-2-2-2-2-2-2-2-2-2-4-6-4-2-|
E|-5-5-5-5-5-5-5-5--0-0-0-0-0-0-0-0----------------------------------| x1

Ending
G|--------|
D|--------|
A|-----2~-|
E|-5~0~---| x1
comments
We did not receive enough feedback on this tab! Please rate:
print report bad tab
1 2 3 4 5
I want to post or [tab]
guest
You may want to rate the tab now too:
select rating
Please do not post tabs as comments. Select "correction" instead!