Oops, an error
Loading. Please wait.

Help Is On The Way Bass Tab

version 3
version 3

Whole song

Interactive

4,108 views 9 this week
no commentswrite comment
1 2 3 4 5
accurate
x 6
add to favorites
launch autoscroll
font size
0
reset
guitar tuner
Tab Pro tools
  • play this tab
  • loop segment
  • change instrument
  • show fretboard
  • metronome
×
Best way to learn
"Help Is On The Way"
Autoscroll
slow
fast
+/-
esc
set tempo
stop
Difficulty
Tuning
intermediate
D# G# C# F# A# D#
Help is on the Way- Rise Against

Hey this is my first tab so don't be to hard on me. Anyways this is what I've heard from 
the song. Should be close to 100%
By the way, in the breakdown the ones are actually elevens.
-------------------------------------------------------------------------------

Tabbed By : Francisco De La Cruz
e-mail: dlcruz13777@gmail.com

Tuning: Half-Step Down (Eb,Ab,Db,Gb)

INTRO:
G|---------------------------------------------------------------------------|
D|---------------------------------------------------------------------------|
A|---------------------------------------------------6h7p6-------------------|
E|4-44-4-4-2-2-6h7p6-0-00-0-0-2-2-6h7p6-4-44-4-4-7-7-------0-00-0-0-66666----| 2x

Part Between Intro and Verse:
G|---------------------------------------------------------------------------|
D|---------------------------------------------------------------------------|
A|-----------------77----------99--------------------------------------------|
E|4444444444444444----44-66-44----44-66-77-----------------------------------|

Verse:
G|---------------------------------------------------------------------------|
D|---------------------------------------------------------------------------|
A|--------------------------------77777777777777779999999999999999-----------|
E|44444444444444447777777777777777--------------------------------77779999---| 2x

Pre-Chorus:
G|---------------------------------------------------------------------------|
D|---------------------------------------------------------------------------|
A|---------------------------------------------------------------------------|
E|0-00-0-0-0-0-0002-22-2-2-2-2-2224-44-4-4-4-4-4447-77-7-7-7-7-777-----------|

G|---------------------------------------------------------------------------|
D|---------------------------------------------------------------------------|
A|7-77-7-7-7-7-6h7p6---------------------------------------------------------|
E|-------------------2-22-2222/14-14-14141414--------------------------------|

Chorus:
G|---------------------------------------------------------------------------|
D|---------------------------------------------------------------------------|
A|---------------------------------------------------------22224444----------|
E|4-4-4442-22----0-00-0000-00-0000-4-4-444-2-22-0-00-0000--------------------|

G|---------------------------------------------------------------------------|
D|---------------------------------------------------------------------------|
A|-----------------2-2-222-------------------------------2222444466662~~~----|
E|4-4-4442-22-2222--------0-00-0000-4-4-4442-22------------------------------|

G|---------------------------------------------------------------------------|
D|---------------------------------------------------------------------------|
A|2224-----------------------------------------------------------------------|
E|---------------------------------------------------------------------------|

Verse:
G|---------------------------------------------------------------------------|
D|---------------------------------------------------------------------------|
A|--------------------------------77777777777777779999999999999999-----------|
E|44444444444444447777777777777777--------------------------------77779999---| 2x

Pre-Chorus:
G|---------------------------------------------------------------------------|
D|---------------------------------------------------------------------------|
A|---------------------------------------------------------------------------|
E|0-00-0-0-0-0-0002-22-2-2-2-2-2224-44-4-4-4-4-4447-77-7-7-7-7-777-----------|

G|---------------------------------------------------------------------------|
D|---------------------------------------------------------------------------|
A|7-77-7-7-7-7-6h7p6---------------------------------------------------------|
E|-------------------2-22-2222/14-14-14141414--------------------------------|

Chorus:
G|---------------------------------------------------------------------------|
D|---------------------------------------------------------------------------|
A|---------------------------------------------------------22224444----------|
E|4-4-4442-22----0-00-0000-00-0000-4-4-444-2-22-0-00-0000--------------------|

G|---------------------------------------------------------------------------|
D|---------------------------------------------------------------------------|
A|-----------------2-2-222---------------------------------------------------|
E|4-4-4442-22-2222--------0-00-0000-4-4-4442---0~~---2~~---4-----------------|

Breakdown:
G|---------------------------------------------------------------------------|
D|---------------------------------------------------------------------------|
A|99999999999999999---------------22244-99999999999999999--------------------|
E|------------------44444444444444-------------------------------------------|

G|---------------------------------------------------------------------------|
D|---------------------------------------------------------------------------|
A|99999999999999999--444444444444446677777777777777777-----------------------|
E|---------------------------------------------------------------------------|

G|---------------------------------------------------------------------------|
D|---------------------------------------------------------------------------|
A|44444444444444449999999999999999-------------------------------------------|
E|----------------------------------44444444222222220000000000000000---------|

G|---------------------------------------------------------------------------|
D|---------------------------------------------------------------------------|
A|------------------------22224444-----------------44444444------------------|
E|444444442222222200000000---------4444444422222222--------00000000----------|

G|---------------------------------------------------------------------------|
D|---------------------------------------------------------------------------|
A|---------------------------------------------------------------------------|
E|444444442222222200000000-11111199979-44444444222222220000000000000000------|

G|---------------------------------------------------------------------------|
D|---------------------------------------------------------------------------|
A|------------------------22224444-----------------22222222------------------|
E|444444442222222200000000---------4444444422222222--------00000000----------|

G|---------------------------------------------------------------------------|
D|---------------------------------------------------------------------------|
A|4444444444444444----------------------------------------7-6-464------------|
E|----------------00000000--7-6-4-2-4-2-4--------00000000--------------------|

Final Chorus:
G|---------------------------------------------------------------------------|
D|---------------------------------------------------------------------------|
A|------------------------22224444-------------------2-2-222-----------------|
E|4-4-444-2-22-0-00-0000------------4-4-4442-22-2222--------0-00-0000--------|

G|---------------------------------------------------------------------------|
D|---------------------------------------------------------------------------|
A|---------------------------------------------------------------------------|
E|4-4-4442-22----------------------------------------------------------------|

Outro:
G|---------------------------------------------------------------------------|
D|---------------------------------------------------------------------------|
A|---------------------------------------------------------------------------|
E|4-44-4-4-2-2-6h7p6-0-00-0-0-2-2-6h7p6-4-44-4-4-2-2-6h7p6-0-00-0-0-2-2------|

G|---------------------------------------------------------------------------|
D|---------------------------------------------------------------------------|
A|---------------------------------------------------------------------------|
E|7-6-4-4\-------------------------------------------------------------------|

Hope you guys find this a good tab. Please rate :D


| /  slide up
| \  slide down
| h  hammer-on
| p  pull-off
| ~  vibrato
| +  harmonic
| x  Mute note
===============================================================================
comments
print report bad tab
I want to post or [tab]
guest
You may want to rate the tab now too:
select rating
Please do not post tabs as comments. Select "correction" instead!