Oops, an error
Loading. Please wait.

Hero Of War Tab

version 1
version 1

Whole song

423,732 views 141 this week
22 commentsread comments
1 2 3 4 5
accurate
x 33
add to favorites
launch autoscroll
font size
0
reset
how to read this tab
guitar tuner
Tab Pro tools
  • play this tab
  • loop segment
  • change instrument
  • show fretboard
  • metronome
×
Best way to learn
"Hero Of War"
Autoscroll
slow
fast
+/-
esc
set tempo
stop
Contributor
Hero of War       Rise Against

Acoustic Guitar One

Intro


eb|------------------|--0-----3s5-3-1-0-|
Bb|---6---6---6---6--|-^1---------------|
Gb|-----5---5---5----|-|0---------------|
Db|------------------|-|2---------------|
Ab|------------------|-|3---------------|
Eb|-6----------------|------------------|
    1 + 2 + 3 + 4 +     1 + 2 + 3 + 4 +

Verse

eb|------------------|-0---0--0-0--0----|------------------|-----1--1-1--1----|
Bb|----------------0-|-1---1-11-1--1-1--|-----1--1-1--1-10-|-----1--1-1--1----|
Gb|-----2--2--2-2-20-|-2---2-22-22-2-2--|-----3--3-33-3-30-|-2---2-22-22-2-2--|
Db|-3---3-33-33-3-30-|-2---2-2---2-2-2--|-----3-33-33-3-30-|-3---3-33-33-3-3--|
Ab|-3---3-33-33-3-30-|-0-----0---00--0--|-1-----1-----1-1--|-3---3-3---3-3-3--|
Eb|-1---1-11-11-1-10-|------------------|------------------|-1-----------1-1--|
    1 + 2 + 3 + 4 +    1 + 2 + 3 + 4 +    1 + 2 + 3 + 4 +    1 + 2 + 3 + 4 +

eb|------------------|-----1--1-1--1-10-|-0---0--0-00-0-00-|-0---0--0-00-0----|
Bb|-----1--1-1--1-10-|-----1--1-1--1-10-|-1---1--1-11-1-11-|-1---1--1-11-1-10-|
Gb|-----3--3-33-3-30-|-----2--2-2--2-20-|-0---0--0-00-0-00-|-0---0--0-00-0-00-|
Db|-----3-33-33-3-30-|-----3-33-33-3-30-|-2---2-22----2-22-|-2---2-22----2-20-|
Ab|-1-----1-----1-1--|-3---3-33-33-3-30-|-3-----3-----3-3--|-3-----3-----3-3--|
Eb|------------------|-1-----1---1------|------------------|------------------|
    1 + 2 + 3 + 4 +    1 + 2 + 3 + 4 +    1 + 2 + 3 + 4 +    1 + 2 + 3 + 4 +

Verse Two

eb|--------1-11-1----|-----0--0-0--0----|------------------|-----1--1-1--1----|
Bb|-----1-11-11-1-1--|-----1-11-1--1-1--|-----1--1-1--1-10-|-----1--1-1--1----|
Gb|-2---2-22-22-2-2--|-----2-22-22-2-2--|-----3--3-33-3-30-|-2---2-22-22-2-2--|
Db|-3---3-33-33-3-30-|-2---2-2---2-2-2--|-----3-33-33-3-30-|-3---3-33-33-3-3--|
Ab|-3---3-33-33-3-30-|-0-----0---00--0--|-1-----1-----1-1--|-3---3-3---3-3-3--|
Eb|-1---1-11-11-1-10-|------------------|------------------|-1-----------1-1--|
    1 + 2 + 3 + 4 +    1 + 2 + 3 + 4 +    1 + 2 + 3 + 4 +    1 + 2 + 3 + 4 +

eb|------------------|-----1--1-1--1-10-|-0---0--0-00-0-00-|-0---0--0-00-0----|
Bb|-----1--1-1--1-10-|-----1--1-1--1-10-|-1---1--1-11-1-11-|-1---1--1-11-1-10-|
Gb|-----3--3-33-3-30-|-----2--2-2--2-20-|-0---0--0-00-0-00-|-0---0--0-00-0-00-|
Db|-----3-33-33-3-30-|-----3-33-33-3-30-|-2---2-22----2-22-|-2---2-22----2-20-|
Ab|-1-----1-----1-1--|-3---3-33-33-3-30-|-3-----3-----3-3--|-3-----3-----3-3--|
Eb|------------------|-1-----1---1------|------------------|------------------|
    1 + 2 + 3 + 4 +    1 + 2 + 3 + 4 +    1 + 2 + 3 + 4 +    1 + 2 + 3 + 4 +


Chorus

eb|-----1--1-11-1-10-|-------------1----|-----1--1-11-1----|-0---0--0-00-0-0--|
Bb|-----3-33-33-3-30-|-----1--1-11-1-1--|-----1--1-11-1-1--|-1---1--1-11-1-10-|
Gb|-2---2-22-22-2-20-|-----3-33-33-3-30-|-2---2-22-22-2-20-|-0---0--0-00-0-00-|
Db|-0---0-0-----0-0--|-3---3-33----3-30-|-3---3-33----3-30-|-2---2-22----2-20-|
Ab|------------------|-1---1-1-----1-10-|-3---3-3-----3-30-|-3-----3-----3-3--|
Eb|------------------|------------------|-1-----1----------|------------------|
    1 + 2 + 3 + 4 +    1 + 2 + 3 + 4 +    1 + 2 + 3 + 4 +    1 + 2 + 3 + 4 +

eb|-----1--1-11-1-10-|-------------1----|-----1--1-11-1----|-0----------------|
Bb|-----3-33-33-3-30-|-----1--1-11-1-1--|-----1--1-11-1-1--|-1----------------|
Gb|-2---2-22-22-2-20-|-----3-33-33-3-30-|-2---2-22-22-2-20-|-0----------------|
Db|-0---0-0-----0-0--|-3---3-33----3-30-|-3---3-33----3-30-|-2----------------|
Ab|------------------|-1---1-1-----1-10-|-3---3-3-----3-30-|-3----------------|
Eb|------------------|------------------|-1-----1----------|------------------|
    1 + 2 + 3 + 4 +    1 + 2 + 3 + 4 +    1 + 2 + 3 + 4 +    1 + 2 + 3 + 4 +

Verse Three

eb|------------------|-----0--0-0--0----|------------------|-----1--1-1--1----|
Bb|-----1--1----1----|-----1-11-1--1-1--|-----1--1-1--1-10-|-----1--1-1--1----|
Gb|-----2--2----2-2--|-----2-22-22-2-2--|-----3--3-33-3-30-|-2---2-22-22-2-2--|
Db|-3---3-33-33-3-30-|-----2-2---2-2-2--|-----3-33-33-3-30-|-3---3-33-33-3-3--|
Ab|-3---3-33-33-3-30-|-0-----0---00--0--|-1-----1-----1-1--|-3---3-3---3-3-3--|
Eb|-1---1-11-11-1-10-|------------------|------------------|-1-----------1-1--|
    1 + 2 + 3 + 4 +    1 + 2 + 3 + 4 +    1 + 2 + 3 + 4 +    1 + 2 + 3 + 4 +

eb|------------------|-----1--1-1--1-10-|-0---0--0-00-0-00-|-0---0--0-00-0----|
Bb|-----1--1-1--1-10-|-----1--1-1--1-10-|-1---1--1-11-1-11-|-1---1--1-11-1-10-|
Gb|-----3--3-33-3-30-|-----2--2-2--2-20-|-0---0--0-00-0-00-|-0---0--0-00-0-00-|
Db|-3---3-33-33-3-30-|-----3-33-33-3-30-|-2---2-22----2-22-|-2---2-22----2-20-|
Ab|-1-----1-----1-1--|-3---3-33-33-3-30-|-3-----3-----3-3--|-3-----3-----3-3--|
Eb|------------------|-1-----1---1------|------------------|------------------|
    1 + 2 + 3 + 4 +    1 + 2 + 3 + 4 +    1 + 2 + 3 + 4 +    1 + 2 + 3 + 4 +


Verse Four

eb|------------------|-----0--0-0--0----|------------------|-----1--1-1--1----|
Bb|-----1--1----1----|-----1-11-1--1-1--|-----1--1-1--1-10-|-----1--1-1--1----|
Gb|-----2--2----2-2--|-----2-22-22-2-2--|-----3--3-33-3-30-|-2---2-22-22-2-2--|
Db|-3---3-33-33-3-30-|-2---2-2---2-2-2--|-----3-33-33-3-30-|-3---3-33-33-3-3--|
Ab|-3---3-33-33-3-30-|-0-----0---00--0--|-1-----1-----1-1--|-3---3-3---3-3-3--|
Eb|-1---1-11-11-1-10-|------------------|------------------|-1-----------1-1--|
    1 + 2 + 3 + 4 +    1 + 2 + 3 + 4 +    1 + 2 + 3 + 4 +    1 + 2 + 3 + 4 +

eb|------------------|-----1--1-1--1-10-|-0---0--0-00-0-00-|-0---0--0-00-0----|
Bb|-----1--1-1--1-10-|-----1--1-1--1-10-|-1---1--1-11-1-11-|-1---1--1-11-1-10-|
Gb|-----3--3-33-3-30-|-----2--2-2--2-20-|-0---0--0-00-0-00-|-0---0--0-00-0-00-|
Db|-----3-33-33-3-30-|-----3-33-33-3-30-|-2---2-22----2-22-|-2---2-22----2-20-|
Ab|-1-----1-----1-1--|-3---3-33-33-3-30-|-3-----3-----3-3--|-3-----3-----3-3--|
Eb|------------------|-1-----1---1------|------------------|------------------|
    1 + 2 + 3 + 4 +    1 + 2 + 3 + 4 +    1 + 2 + 3 + 4 +    1 + 2 + 3 + 4 +


Chorus


eb|-----1--1-11-1-10-|-------------1----|-----1--1-11-1----|-0---0--0-00-0-0--|
Bb|-----3-33-33-3-30-|-----1--1-11-1-1--|-----1--1-11-1-1--|-1---1--1-11-1-10-|
Gb|-2---2-22-22-2-20-|-----3-33-33-3-30-|-2---2-22-22-2-20-|-0---0--0-00-0-00-|
Db|-0---0-0-----0-0--|-3---3-33----3-30-|-3---3-33----3-30-|-2---2-22----2-20-|
Ab|------------------|-1---1-1-----1-10-|-3---3-3-----3-30-|-3-----3-----3-3--|
Eb|------------------|------------------|-1-----1----------|------------------|
    1 + 2 + 3 + 4 +    1 + 2 + 3 + 4 +    1 + 2 + 3 + 4 +    1 + 2 + 3 + 4 +

eb|-----1--1-11-1-10-|-------------1----|-----1--1-11-1----|-0---0--0-00-0----|
Bb|-----3-33-33-3-30-|-----1--1-11-1-1--|-----1--1-11-1-1--|-1---1--1-11-1----|
Gb|-2---2-22-22-2-20-|-----3-33-33-3-30-|-2---2-22-22-2-20-|-0---0--0-00-0----|
Db|-0---0-0-----0-0--|-3---3-33----3-30-|-3---3-33----3-30-|-2---2-22----2----|
Ab|------------------|-1---1-1-----1-10-|-3---3-3-----3-30-|-3-----3-----3----|
Eb|------------------|------------------|-1-----1----------|---------------5--|
    1 + 2 + 3 + 4 +    1 + 2 + 3 + 4 +    1 + 2 + 3 + 4 +    1 + 2 + 3 + 4 +

Interlude


eb|------------------|--0-----3s5-3-1-0-|
Bb|---6---6---6---6--|-^1---------------|
Gb|-----5---5---5----|-|0---------------|
Db|------------------|-|2---------------|
Ab|------------------|-|3---------------|
Eb|-6----------------|------------------|
    1 + 2 + 3 + 4 +     1 + 2 + 3 + 4 +

Verse Five

eb|------------------|------------------|------------------|------------------|
Bb|------------------|-----0---0--------|-6---6---6---6----|-6---6---6---6----|
Gb|-12--12--12--12---|-5---5---5---5----|-7---7---7---7----|-5-5-5-5-5-5-5-55-|
Db|-1010101010101010-|-7---7---7---7----|-8-8-8-8-8-8-8-8--|-7-7-7-7-7-7-7-77-|
Ab|-8-8-8-8-8-8-8-8--|-7-7-7-7-7-7-7-7--|-X-X-X-X-X-X-X-X--|-8-8-8-8-8-8-8-88-|
Eb|------------------|-5-5-5-5-5-5-5-5--|-6-6-6-6-6-6-6-6--|------------------|
    1 + 2 + 3 + 4 +    1 + 2 + 3 + 4 +    1 + 2 + 3 + 4 +    1 + 2 + 3 + 4 + 
     PM  PM  PM  PM   PM  PM  PM  PM     PM  PM  PM  PM

eb|------------------|------------------|-0---0---0---0----|-0---0---0---0----|
Bb|-6---6---6---6----|-6---6---6---6-66-|-1---1---1---1----|-1---1---1---1----|
Gb|-7-7-7-7-7-7-7-7--|-5-5-5-5-5-5-5-55-|-0---0---0---0----|-0---0---0---0----|
Db|-8-8-8-8-8-8-8-8--|-7-7-7-7-7-7-7-77-|-2-2-2-2-2-2-2-2--|-2-2-2-2-2-2-2-2--|
Ab|-X-X-X-X-X-X-X-X--|-8-8-8-8-8-8-8-88-|-3-3-3-3-3-3-3-3--|-3-3-3-3-3-3-3-3--|
Eb|-6-6-6-6-6-6-6-6--|------------------|------------------|------------------|
    1 + 2 + 3 + 4 +    1 + 2 + 3 + 4 +    1 + 2 + 3 + 4 +    1 + 2 + 3 + 4 + 

Verse Six

eb|-1---1---1---1----|-0---0---0---0----|-1---1---1---1----|-1---1---1---1----|
Bb|-1---1---1---1----|-1---1---1---1----|-1---1---1---1----|-1---1---1---1----|
Gb|-2---2---2---2----|-2-2-2-2-2-2-2-2--|-3-3-3-3-3-3-3-3--|-2---2---2---2----|
Db|-3-3-3-3-3-3-3-3--|-2-2-2-2-2-2-2-2--|-3-3-3-3-3-3-3-3--|-3-3-3-3-3-3-3-3--|
Ab|-3-3-3-3-3-3-3-3--|-0-0-0-0-0-0-0-0--|-1-1-1-1-1-1-1-1--|-3-3-3-3-3-3-3-3--|
Eb|-1-1-1-1-1-1-1-1--|------------------|------------------|-1-1-1-1-1-1-1-1--|
    1 + 2 + 3 + 4 +    1 + 2 + 3 + 4 +    1 + 2 + 3 + 4 +    1 + 2 + 3 + 4 +

eb|-1---1---1---1----|-1---1---1---1----|-0---0---0---0----|-0---0---0---0----|
Bb|-1---1---1---1----|-1---1---1---1----|-1---1---1---1----|-1---1---1---1----|
Gb|-3-3-3-3-3-3-3-3--|-2---2---2---2----|-0---0---0---0----|-0---0---0---0----|
Db|-3-3-3-3-3-3-3-3--|-3-3-3-3-3-3-3-3--|-2-2-2-2-2-2-2-2--|-2-2-2-2-2-2-2-2--|
Ab|-1-1-1-1-1-1-1-1--|-3-3-3-3-3-3-3-3--|-3-3-3-3-3-3-3-3--|-3-3-3-3-3-3-3-3--|
Eb|------------------|-1-1-1-1-1-1-1-1--|------------------|------------------|
    1 + 2 + 3 + 4 +    1 + 2 + 3 + 4 +    1 + 2 + 3 + 4 +    1 + 2 + 3 + 4 +

Chorus

eb|-----1--1-11-1-10-|-------------1----|-----1--1-11-1----|-0---0--0-00-0-0--|
Bb|-----3-33-33-3-30-|-----1--1-11-1-1--|-----1--1-11-1-1--|-1---1--1-11-1-10-|
Gb|-2---2-22-22-2-20-|-----3-33-33-3-30-|-2---2-22-22-2-20-|-0---0--0-00-0-00-|
Db|-0---0-0-----0-0--|-3---3-33----3-30-|-3---3-33----3-30-|-2---2-22----2-20-|
Ab|------------------|-1---1-1-----1-10-|-3---3-3-----3-30-|-3-----3-----3-3--|
Eb|------------------|------------------|-1-----1----------|------------------|
    1 + 2 + 3 + 4 +    1 + 2 + 3 + 4 +    1 + 2 + 3 + 4 +    1 + 2 + 3 + 4 +

eb|-----1--1-11-1-10-|-------------1----|-----1--1-11-1----|-0----------------|
Bb|-----3-33-33-3-30-|-----1--1-11-1-1--|-----1--1-11-1-1--|-1----------------|
Gb|-2---2-22-22-2-20-|-----3-33-33-3-30-|-2---2-22-22-2-20-|-0----------------|
Db|-0---0-0-----0-0--|-3---3-33----3-30-|-3---3-33----3-30-|-2----------------|
Ab|------------------|-1---1-1-----1-10-|-3---3-3-----3-30-|-3----------------|
Eb|------------------|------------------|-1-----1----------|------------------|
    1 + 2 + 3 + 4 +    1 + 2 + 3 + 4 +    1 + 2 + 3 + 4 +    1 + 2 + 3 + 4 +
Outro

eb|------------------|------------------|------------------|^1----------------|
Bb|-----1-------1----|-----1-------1----|-----1-------1----||1----------------|
Gb|---2---2---2---2--|-------2-------2--|-------3-------3--||2----------------|
Db|-3-------3--------|---2-------2------|---3-------3------||3----------------|
Ab|------------------|-0-------0--------|-1-------1--------||3----------------|
Eb|------------------|------------------|------------------||1----------------|
    1 + 2 + 3 + 4 +    1 + 2 + 3 + 4 +    1 + 2 + 3 + 4 +    1 + 2 + 3 + 4 +


Extra Guitar Parts:

End of verses one five and six - play (10) verse 5 only.

eb|------------------|------------------|------------------||
Bb|------------------|------------------|(10)--------------||
Gb|-1212121212101010-|-109-9-9-9-10109--|-10---------------||
Db|-1010101010101010-|-1010101010101010-|-10---------------||
Ab|------------------|------------------|------------------||
Eb|------------------|------------------|------------------||
    1 + 2 + 3 + 4 +    1 + 2 + 3 + 4 +    1 + 2 + 3 + 4 + 

Before Chorus One and two

eb|------------------|------------------||
Bb|------------------|------------------||
Gb|-5/7-7-9-9-10109--|-10---------------||
Db|-X-X-X-X-X-X-X-X--|-X----------------||
Ab|-3/5-5-7-7-8-8-7--|-8----------------||
Eb|------------------|------------------||
    1 + 2 + 3 + 4 +    1 + 2 + 3 + 4 +   

Chorus Guitar two (all choruses) - notes in brackets played on third guitar

eb|-------1----------|-------0-1---0----|------------------|------------------|
Bb|-----3---3--------|-----3------------|(10)---1----------|------------------|
Gb|---2-------2------|---3--------------|-----2---3---2----|(5)---------------|
Db|-0----------------|------------------|---3--------------|-5-------3---2----|
Ab|------------------|-1----------------|-3----------------|------------------|
Eb|------------------|------------------|------------------|------------------|
    1 + 2 + 3 + 4 +    1 + 2 + 3 + 4 +    1 + 2 + 3 + 4 +    1 + 2 + 3 + 4 +

eb|-------1----------|-------0-1---0----|------------------|------------------||
Bb|-----3---3--------|-----3------------|-------1----------|------------------||
Gb|---2-------2------|---3--------------|-----2---3---2----|------------------||
Db|-0----------------|------------------|---3--------------|-5----------------||
Ab|------------------|-1----------------|-3----------------|------------------||
Eb|------------------|------------------|------------------|------------------||
    1 + 2 + 3 + 4 +    1 + 2 + 3 + 4 +    1 + 2 + 3 + 4 +    1 + 2 + 3 + 4 +

End of Verse Three

eb|------------------|------------------||
Bb|------------------|------------------||
Gb|-9-9-9-9-9-10109--|-1210109-9--------||
Db|-1010101010101010-|-1010101010-------||
Ab|------------------|------------------||
Eb|------------------|------------------||
    1 + 2 + 3 + 4 +    1 + 2 + 3 + 4 +   


Verse Six

eb|------------------|------------------|------------------|------------------|
Bb|-13--13--13--13---|-13--13--13--13---|-13--13--13--13---|-13--13--11--10---|
Gb|---10--10--10--10-|---9---9---9---9--|---10--10--10--10-|---10--10--10--10-|
Db|------------------|------------------|------------------|------------------|
Ab|------------------|------------------|------------------|------------------|
Eb|------------------|------------------|------------------|------------------|
    1 + 2 + 3 + 4 +    1 + 2 + 3 + 4 +    1 + 2 + 3 + 4 +    1 + 2 + 3 + 4 +

eb|------------------|------------------|------------------|------------------|
Bb|-11--11--11--13---|-10--10--11--10---|---13131313131313-|------------------|
Gb|---10--10--10--10-|---10--10--10--10-|-1212121212121212-|------------------|
Db|------------------|------------------|---Fade out~~~~~~~|------------------|
Ab|------------------|------------------|------------------|------------------|
Eb|------------------|------------------|------------------|------------------|
    1 + 2 + 3 + 4 +    1 + 2 + 3 + 4 +    1 + 2 + 3 + 4 +    1 + 2 + 3 + 4 +

Last Chorus - play seven times

                         (end on)

eb|------------------||----||
Bb|------------------||----||
Gb|-1010109-9-101012-||-10-||
Db|-1010101010101010-||-10-||
Ab|------------------||----||
Eb|------------------||----||
    1 + 2 + 3 + 4 +   
comments
print report bad tab
22 comments total. Showing first comments.
0 reply
occ31191 wrote on October 9 2008, 12:24 pm

this one looks better with the open chords... the other one was all barre chords and didnt sound anything like it

0 reply
chrisjenks wrote on October 10 2008, 04:56 am

Ye this sounds pretty good to me...nice job

0 reply
ultimate124 wrote on October 11 2008, 07:50 pm

Just a suggestion try putting into sections like the chorus and everything but with ALL guitar parts udner it like most tabs . would just facilitate reading it. otehr than that. ive only tried begining. sounds pretty good

I want to post or [tab]
guest
You may want to rate the tab now too:
select rating
Please do not post tabs as comments. Select "correction" instead!