Oops, an error
Loading. Please wait.

How Many Walls tab

version 1
version 1

Whole song

Interactive

214 views 27 this week
1 commentread comment
1 2 3 4 5
3 more votes to show rating
add to favorites
×
Save as Personal and add changes to this tab that will be seen only by you. Learn more ›
×
You can save this tab as Personal to edit and correct it or add notes. All changes will be seen only by you. Learn more »
launch autoscroll
font size
0
reset
how to read this tab
guitar tuner
edit
Autoscroll
slow
fast
+/-
esc
set tempo
stop
Artist: Rise Against
Song: How Many Walls
Album: Wolves (2017)

Guitar 1 (Eb Ab Db Gb Bb eb) - 'Tim McIlrath - Distorion, Rhythm'
Guitar 2 (Eb Ab Db Gb Bb eb) - 'Zach Blair - Distortion, Rhythm'
Guitar 3 (Eb Ab Db Gb Bb eb) - 'Zach Blair - Distortion, Lead'
Guitar 3 (Eb Ab Db Gb Bb eb) - 'Tim McIlrath - Acoustic'

[Intro]
   Guitar 2
    (W)                                  (W)
eb|------------------------------------|------------------------------------|
Bb|------------------------------------|------------------------------------|
Gb|------------------------------------|------------------------------------|
Db|------------------------------------|------------------------------------|
Ab|------------------------------------|------------------------------------|
Eb|------------------------------------|------------------------------------|
  |                                    |                                    |
  |Guitar 3                            |                                    |
  |  E   E   E   E   E   E   E   E     |  E   E   E   E   E   E   E   E     |
eb|--0---0---7---0---3---0---5---0-----|--0---2---3---------------0---------|
Bb|--5---5---5---5---5---5---5---5-----|--3---3---3---3---1---1---1---1-----|
Gb|------------------------------------|------------------------------------|
Db|------------------------------------|------------------------------------|
Ab|------------------------------------|------------------------------------|
Eb|------------------------------------|------------------------------------|

    (W)                                   E   E   E   E   E   E   E  (E)
eb|------------------------------------|------------------------------------|
Bb|------------------------------------|------------------------------------|
Gb|------------------------------------|--9---9---9---9---9---9---9---------|
Db|------------------------------------|------------------------------------|
Ab|------------------------------------|------------------------------------|
Eb|------------------------------------|------------------------------------|
PM|                                    |  .   .   .                         |
  |                                    |                                    |
  |  E   E   E   E   E   E   E   E     |  E   E   E   E   E   E   E  (E)    |
eb|--0---0---7---0---3---0---5---0-----|--0---2---3---------------0---------|
Bb|--5---5---5---5---5---5---5---5-----|--3---3---3---3---1---1---1---------|
Gb|------------------------------------|------------------------------------|
Db|------------------------------------|------------------------------------|
Ab|------------------------------------|------------------------------------|
Eb|------------------------------------|------------------------------------|


[Chorus 1]
   Gtr 1 & 2
     E   E   E   E   E   E   E   E        E   E   E   E   E   E   E   E
eb|------------------------------------|------------------------------------|
Bb|------------------------------------|------------------------------------|
Gb|------------------------------------|------------------------------------|
Db|--2---2---2---2---2---2---2---2-----|--5---5---5---5---7---7---7---7-----|
Ab|--2---2---2---2---2---2---2---2-----|--5---5---5---5---7---7---7---7-----|
Eb|--0---0---0---0---0---0---0---0-----|--3---3---3---3---5---5---5---5-----|
  |                                    |                                    |
  |Gtr 3                               |                                    |
  |  E   E   E   E   E   E   E   E     |  E   E   E   E   E   E   E   E     |
eb|--0---0---7---0---3---0---5---0-----|--0---2---3---------------0---------|
Bb|--5---5---5---5---5---5---5---5-----|--3---3---3---3---1---1---1---1-----|
Gb|------------------------------------|------------------------------------|
Db|------------------------------------|------------------------------------|
Ab|------------------------------------|------------------------------------|
Eb|------------------------------------|------------------------------------|


     E   E   E   E   E   E   E   E        E   E   E   E   E   E   E   E
eb|------------------------------------|------------------------------------|
Bb|------------------------------------|------------------------------------|
Gb|------------------------------------|--7---7---7---7---5---5---5---5-----|
Db|--2---2---2---2---2---2---2---2-----|--7---7---7---7---5---5---5---5-----|
Ab|--2---2---2---2---2---2---2---2-----|--5---5---5---5---3---3---3---3-----|
Eb|--0---0---0---0---0---0---0---0-----|------------------------------------|
  |                                    |                                    |
  |  E   E   E   E   E   E   E   E     |  E   E   E   E   E   E   E   E     |
eb|--0---0---7---0---3---0---5---0-----|--0---2---3---------------0---------|
Bb|--5---5---5---5---5---5---5---5-----|--3---3---3---3---1---1---1---1-----|
Gb|------------------------------------|------------------------------------|
Db|------------------------------------|------------------------------------|
Ab|------------------------------------|------------------------------------|
Eb|------------------------------------|------------------------------------|


     E   E   E   E   E   E   E   E        E   E   E   E   E   E   E   E
eb|------------------------------------|------------------------------------|
Bb|------------------------------------|------------------------------------|
Gb|------------------------------------|------------------------------------|
Db|--2---2---2---2---2---2---2---2-----|--5---5---5---5---7---7---7---7-----|
Ab|--2---2---2---2---2---2---2---2-----|--5---5---5---5---7---7---7---7-----|
Eb|--0---0---0---0---0---0---0---0-----|--3---3---3---3---5---5---5---5-----|
  |                                    |                                    |
  |  E   E   E   E   E   E   E   E     |  E   E   E   E   E   E   E   E     |
eb|--0---0---7---0---3---0---5---0-----|--0---2---3---------------0---------|
Bb|--5---5---5---5---5---5---5---5-----|--3---3---3---3---1---1---1---1-----|
Gb|------------------------------------|------------------------------------|
Db|------------------------------------|------------------------------------|
Ab|------------------------------------|------------------------------------|
Eb|------------------------------------|------------------------------------|


     E   E   E   E   E   E   E   E        E   E   E   E   E   E   E   E
eb|------------------------------------|------------------------------------|
Bb|------------------------------------|------------------------------------|
Gb|--5---5---5---5---5---5---5---5-----|--5---5---5---5---7---7---7---7-----|
Db|--5---5---5---5---5---5---5---5-----|--5---5---5---5---7---7---7---7-----|
Ab|--3---3---3---3---3---3---3---3-----|--3---3---3---3---5---5---5---5-----|
Eb|------------------------------------|------------------------------------|
  |                                    |                                    |
  |  E   E   E   E   E   E   E   E     |  E   E   E   E   E   E   E   E     |
eb|--0---0---7---0---3---0---5---0-----|--0---0---7---0---3---0---5---0-----|
Bb|--5---5---5---5---5---5---5---5-----|--5---5---5---5---5---5---5---5-----|
Gb|------------------------------------|------------------------------------|
Db|------------------------------------|------------------------------------|
Ab|------------------------------------|------------------------------------|
Eb|------------------------------------|------------------------------------|


     E  (Q.)        (Q.)         E
eb|------------------------------------|
Bb|------------------------------------|
Gb|--9---------------------------------|
Db|--9---------------------------2-----|
Ab|--7---------------------------2-----|
Eb|------------------------------0-----|
  |                                    |
  |  E   E   E   E   E   E  (E)  E     |
eb|--0---0---7---0---3---5-------0-----|
Bb|--5---5---5---5---5---5-------5-----|
Gb|------------------------------------|
Db|------------------------------------|
Ab|------------------------------------|
Eb|------------------------------------|


     E   E   E   E   E   E   E   E        E   E   E   E   E   E   E   E
eb|------------------------------------|------------------------------------|
Bb|------------------------------------|------------------------------------|
Gb|------------------------------------|------------------------------------|
Db|--2---2---2---2---2---2---2---2-----|--5---5---5---5---7---7---7---7-----|
Ab|--2---2---2---2---2---2---2---2-----|--5---5---5---5---7---7---7---7-----|
Eb|--0---0---0---0---0---0---0---0-----|--3---3---3---3---5---5---5---5-----|
  |                                    |                                    |
  |  E   E   E   E   E   E   E   E     |  E   E   E   E   E   E   E   E     |
eb|--0---0---7---0---3---0---5---0-----|--0---2---3---------------0---------|
Bb|--5---5---5---5---5---5---5---5-----|--3---3---3---3---1---1---1---1-----|
Gb|------------------------------------|------------------------------------|
Db|------------------------------------|------------------------------------|
Ab|------------------------------------|------------------------------------|
Eb|------------------------------------|------------------------------------|


     E   E   E   E   E   E   E   E        E   E   E   E   E   E   E   E
eb|------------------------------------|------------------------------------|
Bb|------------------------------------|------------------------------------|
Gb|------------------------------------|--7---7---7---7---5---5---5---5-----|
Db|--2---2---2---2---2---2---2---2-----|--7---7---7---7---5---5---5---5-----|
Ab|--2---2---2---2---2---2---2---2-----|--5---5---5---5---3---3---3---3-----|
Eb|--0---0---0---0---0---0---0---0-----|------------------------------------|
  |                                    |                                    |
  |  E   E   E   E   E   E   E   E     |  E   E   E   E   E   E   E   E     |
eb|--0---0---7---0---3---0---5---0-----|--0---2---3---------------0---------|
Bb|--5---5---5---5---5---5---5---5-----|--3---3---3---3---1---1---1---1-----|
Gb|------------------------------------|------------------------------------|
Db|------------------------------------|------------------------------------|
Ab|------------------------------------|------------------------------------|
Eb|------------------------------------|------------------------------------|


     E   E   E   E   E   E   E   E        E   E   E   E   E   E   E   E
eb|--x---x-----------------------------|------------------------------------|
Bb|--x---x-----------------------------|------------------------------------|
Gb|--x---x-----------------------------|------------------------------------|
Db|--x---x---2---2---2---2---2---2-----|--5---5---5---5---7---7---7---7-----|
Ab|--x---x---2---2---2---2---2---2-----|--5---5---5---5---7---7---7---7-----|
Eb|--x---x---0---0---0---0---0---0-----|--3---3---3---3---5---5---5---5-----|
  |                                    |                                    |
  |  E   E   E   E   E   E   E   E     |  E   E   E   E   E   E   E   E     |
eb|--0---0---7---0---3---0---5---0-----|--0---2---3---------------0---------|
Bb|--5---5---5---5---5---5---5---5-----|--3---3---3---3---1---1---1---1-----|
Gb|------------------------------------|------------------------------------|
Db|------------------------------------|------------------------------------|
Ab|------------------------------------|------------------------------------|
Eb|------------------------------------|------------------------------------|


     E   E   E   E   E   E   E   E        E   E   E   E   E   E   E   E
eb|------------------------------------|------------------------------------|
Bb|------------------------------------|------------------------------------|
Gb|--5---5---5---5---5---5---5---5-----|--5---5---5---5---7---7---7---7-----|
Db|--5---5---5---5---5---5---5---5-----|--5---5---5---5---7---7---7---7-----|
Ab|--3---3---3---3---3---3---3---3-----|--3---3---3---3---5---5---5---5-----|
Eb|------------------------------------|------------------------------------|
  |                                    |                                    |
  |  E   E   E   E   E   E   E   E     |  E   E   E   E   E   E   E   E     |
eb|--0---0---7---0---3---0---5---0-----|--0---0---7---0---3---0---5---0-----|
Bb|--5---5---5---5---5---5---5---5-----|--5---5---5---5---5---5---5---5-----|
Gb|------------------------------------|------------------------------------|
Db|------------------------------------|------------------------------------|
Ab|------------------------------------|------------------------------------|
Eb|------------------------------------|------------------------------------|

   Gtr 1
    (E)  Q.         +H                    H               H                  
eb|------0-----------------------------|------------------------------------|
Bb|------0-----------------------------|-----------------[12]---------------|
Gb|------x-----------------------------|-[5]--------------------------------|
Db|------2-----------------------------|------------------------------------|
Ab|------2-----------------------------|------------------------------------|
Eb|------0-----------------------------|------------------------------------|
  |                                    |                                    |
  |Gtr 2                               |                                    |
  | (E)  Q.         +H                 | +W                                 |
eb|------------------------------------|------------------------------------|
Bb|------------------------------------|------------------------------------|
Gb|------9-----------------------------|------------------------------------|
Db|------9-----------------------------|------------------------------------|
Ab|------7-----------------------------|------------------------------------|
Eb|------------------------------------|------------------------------------|



[Verse 1]
   Gtr 1
     S S S S S S S S S S S S S S S S      S S S S S S S S S S S S S S S S
eb|------------------------------------|------------------------------------|
Bb|------------------------------------|------------------------------------|
Gb|------------------------------------|------------------------------------|
Db|------------------------------------|------------------------------------|
Ab|--3-3-3-3-3-3-3-3-3-3-3-3-3-3-3-3---|--3-3-3-3-3-3-3-3-3-3-3-3-3-3-3-3---|
Eb|------------------------------------|------------------------------------|
PM|  . . . . . . . . . . . . . . . .   |  . . . . . . . . . . . . . . . .   |
  |                                    |                                    |
  |Gtr 2                               |                                    |
  | (W)                                | (W)                                |
eb|------------------------------------|------------------------------------|
Bb|------------------------------------|------------------------------------|
Gb|------------------------------------|------------------------------------|
Db|------------------------------------|------------------------------------|
Ab|------------------------------------|------------------------------------|
Eb|------------------------------------|------------------------------------|



    (E)  Q       Q       Q       E       (E)  Q       Q       E   E   E
eb|------------------------------------|------------------------------------|
Bb|------------------------------------|------------------------------------|
Gb|------------------------------------|------7-------7-------7---7---7-----|
Db|------2-------2-------2-------2-----|------7-------7-------7---7---7-----|
Ab|------2-------2-------2-------2-----|------5-------5-------5---5---5-----|
Eb|------0-------0-------0-------0-----|------------------------------------|
  |                                    |                                    |
  | (E)  Q       Q       Q       E     | (E)  Q       Q       E   E   E     |
eb|------------------------------------|------------------------------------|
Bb|------------------------------------|------------------------------------|
Gb|------12------12------12------12----|------11------11------11--12--11----|
Db|------x-------x-------x-------x-----|------x-------x-------x---x---x-----|
Ab|------10------10------10------10----|------9-------9-------9---10--9-----|
Eb|------------------------------------|------------------------------------|


     S S S S S S S S S S S S S S S S      S S S S S S S S S S S S S S S S    
eb|------------------------------------|------------------------------------|
Bb|------------------------------------|------------------------------------|
Gb|------------------------------------|------------------------------------|
Db|------------------------------------|------------------------------------|
Ab|--3-3-3-3-3-3-3-3-3-3-3-3-3-3-3-3---|--3-3-3-3-3-3-3-3-3-3-3-3-3-3-3-3---|
Eb|------------------------------------|------------------------------------|
PM|  . . . . . . . . . . . . . . . .   |  . . . . . . . . . . . . . . . .   |
  |                                    |                                    |
  |  H               H                 |  H               H                 |
eb|------------------------------------|------------------------------------|
Bb|------------------------------------|------------------------------------|
Gb|--9---------------11----------------|--12--------------14----------------|
Db|--x---------------x-----------------|--x---------------x-----------------|
Ab|--7---------------9-----------------|--10--------------12----------------|
Eb|------------------------------------|------------------------------------|


    (E)  Q       Q       Q       E       (E)  Q       Q       E   E   E
eb|------------------------------------|------------------------------------|
Bb|------------------------------------|------------------------------------|
Gb|------------------------------------|------7-------7-------7---7---7-----|
Db|------2-------2-------2-------2-----|------7-------7-------7---7---7-----|
Ab|------2-------2-------2-------2-----|------5-------5-------5---5---5-----|
Eb|------0-------0-------0-------0-----|------------------------------------|
  |                                    |                                    |
  | (E)  Q       Q       Q       E     | (E)  Q       Q       E   E   E     |
eb|------------------------------------|------------------------------------|
Bb|------------------------------------|------------------------------------|
Gb|------16------16------16------16----|------14------14------14--12--11----|
Db|------x-------x-------x-------x-----|------x-------x-------x---x---x-----|
Ab|------14------14------14------14----|------12------12------12--10--9-----|
Eb|------------------------------------|------------------------------------|


     S S S S S S S S S S S S S S S S      S S S S S S S S S S S S S S S S    
eb|------------------------------------|------------------------------------|
Bb|------------------------------------|------------------------------------|
Gb|------------------------------------|------------------------------------|
Db|------------------------------------|------------------------------------|
Ab|--3-3-3-3-3-3-3-3-3-3-2-2-0-0-------|--------------------------0-0-2-2---|
Eb|------------------------------3-3---|--0-0-0-0-0-0-0-0-0-0-3-3-----------|
PM|  . . . . . . . . . . . . . . . .   |  . . . . . . . . . . . . . . . .   |
  |                                    |                                    |
  |  E   Q       Q       E   E   E     | +E   E   Q       E   Q       E     |
eb|------------------------------------|------------------------------------|
Bb|--15--15------15------13--15--12----|------12--15------13--12------13----|
Gb|--12--12------12------12--12--12----|------12--12------12--12------12----|
Db|------------------------------------|------------------------------------|
Ab|------------------------------------|------------------------------------|
Eb|------------------------------------|------------------------------------|


     S S S S S S S S S S S S S S S S      S S S S S S S S S S S S S S S S    
eb|------------------------------------|------------------------------------|
Bb|------------------------------------|------------------------------------|
Gb|------------------------------------|------------------------------------|
Db|------------------------------------|------------------------------------|
Ab|--3-3-3-3-3-3-3-3-3-3-2-2-0-0-------|------------------5-5-5-5-5-5-5-5---|
Eb|------------------------------3-3---|--0-0-0-0-0-0-0-0-------------------|
PM|  . . . . . . . . . . . . . . . .   |  . . . . . . . . . . . . . . . .   |
  |                                    |                                    |
  |  E   Q       Q       Q       E     | +E   Q       Q       Q       E     |
eb|------------------------------------|------------------------------------|
Bb|--15--15------15------13------12----|------12------12------12------12----|
Gb|--12--12------12------12------12----|------12------12------12------12----|
Db|------------------------------------|------------------------------------|
Ab|------------------------------------|------------------------------------|
Eb|------------------------------------|------------------------------------|


     S S S S S S S S S S S S S S S S      S S S S S S S S S S S S S S S S    
eb|------------------------------------|------------------------------------|
Bb|------------------------------------|------------------------------------|
Gb|------------------------------------|------------------------------------|
Db|------------------------------------|------------------------------------|
Ab|--3-3-3-3-3-3-3-3-3-3-2-2-0-0-------|--------------------------0-0-2-2---|
Eb|------------------------------3-3---|--0-0-0-0-0-0-0-0-0-0-3-3-----------|
PM|  . . . . . . . . . . . . . . . .   |  . . . . . . . . . . . . . . . .   |
  |                                    |                                    |
  |  E   Q       Q       Q       E     | +E   Q       Q       Q       E     |
eb|------------------------------------|------------------------------------|
Bb|--15--15------15------13------12----|------13------12------13------15----|
Gb|--12--12------12------12------12----|------12------12------12------12----|
Db|------------------------------------|------------------------------------|
Ab|------------------------------------|------------------------------------|
Eb|------------------------------------|------------------------------------|

   Gtr 1
     E   E   E   E   E   E   E   E        E  (Q.)        (Q)      Q  
eb|------------------------------------|------------------------------------|
Bb|------------------------------------|------------------------------------|
Gb|--5---5---5---5---5---5---5---5-----|--7---------------------------------|
Db|--5---5---5---5---5---5---5---5-----|--7---------------------------------|
Ab|--3---3---3---3---3---3---3---3-----|--5---------------------------------|
Eb|------------------------------------|--------------------------12\-------|
  |                                    |                                    |
  |Gtr 2                               |                                    |
  |  E   E   E   E   E   E   E   E     |  E  (E)  H.                        |
eb|------------------------------------|------------------------------------|
Bb|------------------------------------|------------------------------------|
Gb|--5---5---5---5---5---5---5---5-----|--7------[7]------------------------|
Db|--5---5---5---5---5---5---5---5-----|--7---------------------------------|
Ab|--3---3---3---3---3---3---3---3-----|--5---------------------------------|
Eb|------------------------------------|------------------------------------|
  |                                    |                                    |
  |Gtr 3                               |                                    |
  |  E   E   E   E   E   E   E   E     |  E   E   E   E   E   E   E  (E)    |
eb|--0---0---7---0---3---0---5---0-----|--0---0---7---0---3---0---5---------|
Bb|--5---5---5---5---5---5---5---5-----|--5---5---5---5---5---5---5---------|
Gb|------------------------------------|------------------------------------|
Db|------------------------------------|------------------------------------|
Ab|------------------------------------|------------------------------------|
Eb|------------------------------------|------------------------------------|


[Chorus 2]
   Gtr 1 & 2
     E   E   E   E   E   E   E   E        E   E   E   E   E   E   E   E
eb|------------------------------------|------------------------------------|
Bb|------------------------------------|------------------------------------|
Gb|------------------------------------|------------------------------------|
Db|--2---2---2---2---2---2---2---2-----|--5---5---5---5---7---7---7---7-----|
Ab|--2---2---2---2---2---2---2---2-----|--5---5---5---5---7---7---7---7-----|
Eb|--0---0---0---0---0---0---0---0-----|--3---3---3---3---5---5---5---5-----|
  |                                    |                                    |
  |Gtr 3                               |                                    |
  |  E   E   E   E   E   E   E   E     |  E   E   E   E   E   E   E   E     |
eb|--0---0---7---0---3---0---5---0-----|--0---2---3---------------0---------|
Bb|--5---5---5---5---5---5---5---5-----|--3---3---3---3---1---1---1---1-----|
Gb|------------------------------------|------------------------------------|
Db|------------------------------------|------------------------------------|
Ab|------------------------------------|------------------------------------|
Eb|------------------------------------|------------------------------------|


     E   E   E   E   E   E   E   E        E   E   E   E   E   E   E   E
eb|------------------------------------|------------------------------------|
Bb|------------------------------------|------------------------------------|
Gb|------------------------------------|--7---7---7---7---5---5---5---5-----|
Db|--2---2---2---2---2---2---2---2-----|--7---7---7---7---5---5---5---5-----|
Ab|--2---2---2---2---2---2---2---2-----|--5---5---5---5---3---3---3---3-----|
Eb|--0---0---0---0---0---0---0---0-----|------------------------------------|
  |                                    |                                    |
  |  E   E   E   E   E   E   E   E     |  E   E   E   E   E   E   E   E     |
eb|--0---0---7---0---3---0---5---0-----|--0---2---3---------------0---------|
Bb|--5---5---5---5---5---5---5---5-----|--3---3---3---3---1---1---1---1-----|
Gb|------------------------------------|------------------------------------|
Db|------------------------------------|------------------------------------|
Ab|------------------------------------|------------------------------------|
Eb|------------------------------------|------------------------------------|


     E   E   E   E   E   E   E   E        E   E   E   E   E   E   E   E
eb|------------------------------------|------------------------------------|
Bb|------------------------------------|------------------------------------|
Gb|------------------------------------|------------------------------------|
Db|--2---2---2---2---2---2---2---2-----|--5---5---5---5---7---7---7---7-----|
Ab|--2---2---2---2---2---2---2---2-----|--5---5---5---5---7---7---7---7-----|
Eb|--0---0---0---0---0---0---0---0-----|--3---3---3---3---5---5---5---5-----|
  |                                    |                                    |
  |  E   E   E   E   E   E   E   E     |  E   E   E   E   E   E   E   E     |
eb|--0---0---7---0---3---0---5---0-----|--0---2---3---------------0---------|
Bb|--5---5---5---5---5---5---5---5-----|--3---3---3---3---1---1---1---1-----|
Gb|------------------------------------|------------------------------------|
Db|------------------------------------|------------------------------------|
Ab|------------------------------------|------------------------------------|
Eb|------------------------------------|------------------------------------|


     E   E   E   E   E   E   E   E        E   E   E   E   E   E   E   E
eb|------------------------------------|------------------------------------|
Bb|------------------------------------|------------------------------------|
Gb|--5---5---5---5---5---5---5---5-----|--5---5---5---5---7---7---7---7-----|
Db|--5---5---5---5---5---5---5---5-----|--5---5---5---5---7---7---7---7-----|
Ab|--3---3---3---3---3---3---3---3-----|--3---3---3---3---5---5---5---5-----|
Eb|------------------------------------|------------------------------------|
  |                                    |                                    |
  |  E   E   E   E   E   E   E   E     |  E   E   E   E   E   E   E   E     |
eb|--0---0---7---0---3---0---5---0-----|--0---0---7---0---3---0---5---0-----|
Bb|--5---5---5---5---5---5---5---5-----|--5---5---5---5---5---5---5---5-----|
Gb|------------------------------------|------------------------------------|
Db|------------------------------------|------------------------------------|
Ab|------------------------------------|------------------------------------|
Eb|------------------------------------|------------------------------------|


     E   E   E   E   E   E   E   E        E   E   E   E   E   E   E   E
eb|------------------------------------|------------------------------------|
Bb|------------------------------------|------------------------------------|
Gb|------------------------------------|------------------------------------|
Db|--2---2---2---2---2---2---2---2-----|--5---5---5---5---7---7---7---7-----|
Ab|--2---2---2---2---2---2---2---2-----|--5---5---5---5---7---7---7---7-----|
Eb|--0---0---0---0---0---0---0---0-----|--3---3---3---3---5---5---5---5-----|
  |                                    |                                    |
  |  E   E   E   E   E   E   E   E     |  E   E   E   E   E   E   E   E     |
eb|--0---0---7---0---3---0---5---0-----|--0---2---3---------------0---------|
Bb|--5---5---5---5---5---5---5---5-----|--3---3---3---3---1---1---1---1-----|
Gb|------------------------------------|------------------------------------|
Db|------------------------------------|------------------------------------|
Ab|------------------------------------|------------------------------------|
Eb|------------------------------------|------------------------------------|


     E   E   E   E   E   E   E   E        E   E   E   E   E   E   E   E
eb|------------------------------------|------------------------------------|
Bb|------------------------------------|------------------------------------|
Gb|------------------------------------|--7---7---7---7---5---5---5---5-----|
Db|--2---2---2---2---2---2---2---2-----|--7---7---7---7---5---5---5---5-----|
Ab|--2---2---2---2---2---2---2---2-----|--5---5---5---5---3---3---3---3-----|
Eb|--0---0---0---0---0---0---0---0-----|------------------------------------|
  |                                    |                                    |
  |  E   E   E   E   E   E   E   E     |  E   E   E   E   E   E   E   E     |
eb|--0---0---7---0---3---0---5---0-----|--0---2---3---------------0---------|
Bb|--5---5---5---5---5---5---5---5-----|--3---3---3---3---1---1---1---1-----|
Gb|------------------------------------|------------------------------------|
Db|------------------------------------|------------------------------------|
Ab|------------------------------------|------------------------------------|
Eb|------------------------------------|------------------------------------|


     E   E   E   E   E   E   E   E        E   E   E   E   E   E   E   E
eb|--x---x-----------------------------|------------------------------------|
Bb|--x---x-----------------------------|------------------------------------|
Gb|--x---x-----------------------------|------------------------------------|
Db|--x---x---2---2---2---2---2---2-----|--5---5---5---5---7---7---7---7-----|
Ab|--x---x---2---2---2---2---2---2-----|--5---5---5---5---7---7---7---7-----|
Eb|--x---x---0---0---0---0---0---0-----|--3---3---3---3---5---5---5---5-----|
  |                                    |                                    |
  |  E   E   E   E   E   E   E   E     |  E   E   E   E   E   E   E   E     |
eb|--0---0---7---0---3---0---5---0-----|--0---2---3---------------0---------|
Bb|--5---5---5---5---5---5---5---5-----|--3---3---3---3---1---1---1---1-----|
Gb|------------------------------------|------------------------------------|
Db|------------------------------------|------------------------------------|
Ab|------------------------------------|------------------------------------|
Eb|------------------------------------|------------------------------------|


     E   E   E   E   E   E   E   E        E   E   E   E   E   E   E   E
eb|------------------------------------|------------------------------------|
Bb|------------------------------------|------------------------------------|
Gb|--5---5---5---5---5---5---5---5-----|--5---5---5---5---7---7---7---7-----|
Db|--5---5---5---5---5---5---5---5-----|--5---5---5---5---7---7---7---7-----|
Ab|--3---3---3---3---3---3---3---3-----|--3---3---3---3---5---5---5---5-----|
Eb|------------------------------------|------------------------------------|
  |                                    |                                    |
  |  E   E   E   E   E   E   E   E     |  E   E   E   E   E   E   E   E     |
eb|--0---0---7---0---3---0---5---0-----|--0---0---7---0---3---0---5---0-----|
Bb|--5---5---5---5---5---5---5---5-----|--5---5---5---5---5---5---5---5-----|
Gb|------------------------------------|------------------------------------|
Db|------------------------------------|------------------------------------|
Ab|------------------------------------|------------------------------------|
Eb|------------------------------------|------------------------------------|


   Gtr 1
    (E)  Q.         +H                    H               H                  
eb|------0-----------------------------|------------------------------------|
Bb|------0-----------------------------|-----------------[12]---------------|
Gb|------x-----------------------------|-[5]--------------------------------|
Db|------2-----------------------------|------------------------------------|
Ab|------2-----------------------------|------------------------------------|
Eb|------0-----------------------------|------------------------------------|
  |                                    |                                    |
  |Gtr 2                               |                                    |
  | (E)  Q.         +H                 | +H               H                 |
eb|------------------------------------|------------------------------------|
Bb|------------------------------------|------------------------------------|
Gb|------------------------------------|------------------------------------|
Db|------2-----------------------------|------------------------------------|
Ab|------2-----------------------------|------------------------------------|
Eb|------0-----------------------------|------------------[Pick slide]------|


[Verse 2]
   Gtr 4
     E   E   E   E   E   E   E   E        E   E   E   E   E   E   E   E
eb|------0-------0-------0-------0-----|------0-------0-------0-------0-----|
Bb|------1-------1-------1-------1-----|------1-------1-------1-------1-----|[You can be very loose with your
Gb|--0---0---0---0---0---0---0---0-----|--0---0---0---0---0---0---0---0-----|   strumming hand during this 
Db|------------------------------------|------------------------------------|             part]
Ab|------------------------------------|------------------------------------|
Eb|------------------------------------|------------------------------------|

     E   E   E   E   E   E   E   E        E   E   E   E   E   E   E   E
eb|------0-------0-------0-------0-----|------0-------0-------0-------0-----|
Bb|------0-------0-------0-------0-----|------0-------0-------0-------0-----|
Gb|--0---0---0---0---0---0---0---0-----|--0---0---0---0---0---0---0---0-----|
Db|------------------------------------|------------------------------------|
Ab|------------------------------------|------------------------------------|
Eb|------------------------------------|------------------------------------|

     E   E   E   E   E   E   E   E        E   E   E   E   E   E   E   E
eb|------0-------0-------0-------0-----|------0-------0-------0-------0-----|
Bb|------1-------1-------1-------1-----|------1-------1-------1-------1-----|
Gb|--0---0---0---0---0---0---0---0-----|--0---0---0---0---0---0---0---0-----|
Db|------------------------------------|------------------------------------|
Ab|------------------------------------|------------------------------------|
Eb|------------------------------------|------------------------------------|

     E   E   E   E   E   E   E   E        E   E   E   E   E   E   E   E
eb|------2-------2-------2-------2-----|------2-------2---2---2---2---------|
Bb|------3-------3-------3-------3-----|------3-------3---3---3---3---------|
Gb|--2---2---2---2---2---2---2---2-----|--2---2---2---2---2---2---2---2-----|
Db|------------------------------------|------------------------------------|
Ab|------------------------------------|------------------------------------|
Eb|------------------------------------|------------------------------------|

   Gtr 1 & 2
     W                                    W
eb|------------------------------------|--0---------------------------------|
Bb|------------------------------------|--0---------------------------------|
Gb|--5---------------------------------|--2---------------------------------|
Db|--5---------------------------------|--2---------------------------------|
Ab|--3---------------------------------|--0---------------------------------|
Eb|------------------------------------|------------------------------------|
  |                                    |                                    |
  |Gtr 3                               |                                    |
  | (Q.)         E   E   E   E   E     |  H               H                 |
eb|------------------------------------|------------------------------------|
Bb|--------------12-b13-r12------------|------------------12----------------|
Gb|--------------------------14--12----|--14~-------------------------------|
Db|------------------------------------|------------------------------------|
Ab|------------------------------------|------------------------------------|
Eb|------------------------------------|------------------------------------|


     W                                    W
eb|--0---------------------------------|------------------------------------|
Bb|--0---------------------------------|--3---------------------------------|
Gb|--x---------------------------------|--2---------------------------------|
Db|--2---------------------------------|--0---------------------------------|
Ab|--2---------------------------------|------------------------------------|
Eb|--0---------------------------------|------------------------------------|
  |                                    |                                    |
  |Gtr 3                               |                                    |
  |  W                                 |  H               H                 |
eb|------------------------------------|------------------------------------|
Bb|------------------------------------|------------------12----------------|
Gb|--13~-------------------------------|--14--------------------------------|
Db|------------------------------------|------------------------------------|
Ab|------------------------------------|------------------------------------|
Eb|------------------------------------|------------------------------------|


     Q       Q       Q       Q            E  (Q.)        (H)
eb|------------------------------------|------------------------------------|
Bb|------------------------------------|------------------------------------|
Gb|--5-------5-------5-------5---------|--7---------------------------------|
Db|--5-------5-------5-------5---------|--7---------------------------------|
Ab|--3-------3-------3-------3---------|--5---------------------------------|
Eb|------------------------------------|------------------------------------|
  |                                    |                                    |
  |  Q.          E   E   E   E   E     |  E   E   E   E   E   E   E   E     |
eb|------------------------------------|--0---0---7---0---3---0---5---0-----|
Bb|--13----------12-b13-r12------------|--5---5---5---5---5---5---5---5-----|
Gb|--------------------------14--12----|------------------------------------|
Db|------------------------------------|------------------------------------|
Ab|------------------------------------|------------------------------------|
Eb|------------------------------------|------------------------------------|

    (H)             (Q.)         E
eb|------------------------------------|
Bb|------------------------------------|
Gb|------------------------------------|
Db|------------------------------------|
Ab|------------------------------------|
Eb|------------------------------12\---|
  |                                    |
  |  E   E   E   E   E   E   E   E     |
eb|--0---0---7---0---3---0---5---0-----|
Bb|--5---5---5---5---5---5---5---5-----|
Gb|------------------------------------|
Db|------------------------------------|
Ab|------------------------------------|
Eb|------------------------------------|


[Chorus 3]
   Gtr 1 & 2
     E   E   E   E   E   E   E   E        E   E   E   E   E   E   E   E
eb|------------------------------------|------------------------------------|
Bb|------------------------------------|------------------------------------|
Gb|------------------------------------|------------------------------------|
Db|--2---2---2---2---2---2---2---2-----|--5---5---5---5---7---7---7---7-----|
Ab|--2---2---2---2---2---2---2---2-----|--5---5---5---5---7---7---7---7-----|
Eb|--0---0---0---0---0---0---0---0-----|--3---3---3---3---5---5---5---5-----|
  |                                    |                                    |
  |Gtr 3                               |                                    |
  |  E   E   E   E   E   E   E   E     |  E   E   E   E   E   E   E   E     |
eb|--0---0---7---0---3---0---5---0-----|--0---2---3---------------0---------|
Bb|--5---5---5---5---5---5---5---5-----|--3---3---3---3---1---1---1---1-----|
Gb|------------------------------------|------------------------------------|
Db|------------------------------------|------------------------------------|
Ab|------------------------------------|------------------------------------|
Eb|------------------------------------|------------------------------------|


     E   E   E   E   E   E   E   E        E   E   E   E   E   E   E   E
eb|------------------------------------|------------------------------------|
Bb|------------------------------------|------------------------------------|
Gb|------------------------------------|--7---7---7---7---5---5---5---5-----|
Db|--2---2---2---2---2---2---2---2-----|--7---7---7---7---5---5---5---5-----|
Ab|--2---2---2---2---2---2---2---2-----|--5---5---5---5---3---3---3---3-----|
Eb|--0---0---0---0---0---0---0---0-----|------------------------------------|
  |                                    |                                    |
  |  E   E   E   E   E   E   E   E     |  E   E   E   E   E   E   E   E     |
eb|--0---0---7---0---3---0---5---0-----|--0---2---3---------------0---------|
Bb|--5---5---5---5---5---5---5---5-----|--3---3---3---3---1---1---1---1-----|
Gb|------------------------------------|------------------------------------|
Db|------------------------------------|------------------------------------|
Ab|------------------------------------|------------------------------------|
Eb|------------------------------------|------------------------------------|


     E   E   E   E   E   E   E   E        E   E   E   E   E   E   E   E
eb|------------------------------------|------------------------------------|
Bb|------------------------------------|------------------------------------|
Gb|------------------------------------|------------------------------------|
Db|--2---2---2---2---2---2---2---2-----|--5---5---5---5---7---7---7---7-----|
Ab|--2---2---2---2---2---2---2---2-----|--5---5---5---5---7---7---7---7-----|
Eb|--0---0---0---0---0---0---0---0-----|--3---3---3---3---5---5---5---5-----|
  |                                    |                                    |
  |  E   E   E   E   E   E   E   E     |  E   E   E   E   E   E   E   E     |
eb|--0---0---7---0---3---0---5---0-----|--0---2---3---------------0---------|
Bb|--5---5---5---5---5---5---5---5-----|--3---3---3---3---1---1---1---1-----|
Gb|------------------------------------|------------------------------------|
Db|------------------------------------|------------------------------------|
Ab|------------------------------------|------------------------------------|
Eb|------------------------------------|------------------------------------|


     E   E   E   E   E   E   E   E        E   E   E   E   E   E   E   E
eb|------------------------------------|------------------------------------|
Bb|------------------------------------|------------------------------------|
Gb|--5---5---5---5---5---5---5---5-----|--5---5---5---5---7---7---7---7-----|
Db|--5---5---5---5---5---5---5---5-----|--5---5---5---5---7---7---7---7-----|
Ab|--3---3---3---3---3---3---3---3-----|--3---3---3---3---5---5---5---5-----|
Eb|------------------------------------|------------------------------------|
  |                                    |                                    |
  |  E   E   E   E   E   E   E   E     |  E   E   E   E   E   E   E   E     |
eb|--0---0---7---0---3---0---5---0-----|--0---0---7---0---3---0---5---0-----|
Bb|--5---5---5---5---5---5---5---5-----|--5---5---5---5---5---5---5---5-----|
Gb|------------------------------------|------------------------------------|
Db|------------------------------------|------------------------------------|
Ab|------------------------------------|------------------------------------|
Eb|------------------------------------|------------------------------------|


     E   E   E   E   E   E   E   E        E   E   E   E   E   E   E   E
eb|------------------------------------|------------------------------------|
Bb|------------------------------------|------------------------------------|
Gb|------------------------------------|------------------------------------|
Db|--2---2---2---2---2---2---2---2-----|--5---5---5---5---7---7---7---7-----|
Ab|--2---2---2---2---2---2---2---2-----|--5---5---5---5---7---7---7---7-----|
Eb|--0---0---0---0---0---0---0---0-----|--3---3---3---3---5---5---5---5-----|
  |                                    |                                    |
  |  E   E   E   E   E   E   E   E     |  E   E   E   E   E   E   E   E     |
eb|--0---0---7---0---3---0---5---0-----|--0---2---3---------------0---------|
Bb|--5---5---5---5---5---5---5---5-----|--3---3---3---3---1---1---1---1-----|
Gb|------------------------------------|------------------------------------|
Db|------------------------------------|------------------------------------|
Ab|------------------------------------|------------------------------------|
Eb|------------------------------------|------------------------------------|


     E   E   E   E   E   E   E   E        E   E   E   E   E   E   E   E
eb|------------------------------------|------------------------------------|
Bb|------------------------------------|------------------------------------|
Gb|------------------------------------|--7---7---7---7---5---5---5---5-----|
Db|--2---2---2---2---2---2---2---2-----|--7---7---7---7---5---5---5---5-----|
Ab|--2---2---2---2---2---2---2---2-----|--5---5---5---5---3---3---3---3-----|
Eb|--0---0---0---0---0---0---0---0-----|------------------------------------|
  |                                    |                                    |
  |  E   E   E   E   E   E   E   E     |  E   E   E   E   E   E   E   E     |
eb|--0---0---7---0---3---0---5---0-----|--0---2---3---------------0---------|
Bb|--5---5---5---5---5---5---5---5-----|--3---3---3---3---1---1---1---1-----|
Gb|------------------------------------|------------------------------------|
Db|------------------------------------|------------------------------------|
Ab|------------------------------------|------------------------------------|
Eb|------------------------------------|------------------------------------|


     E   E   E   E   E   E   E   E        E   E   E   E   E   E   E   E
eb|--x---x-----------------------------|------------------------------------|
Bb|--x---x-----------------------------|------------------------------------|
Gb|--x---x-----------------------------|------------------------------------|
Db|--x---x---2---2---2---2---2---2-----|--5---5---5---5---7---7---7---7-----|
Ab|--x---x---2---2---2---2---2---2-----|--5---5---5---5---7---7---7---7-----|
Eb|--x---x---0---0---0---0---0---0-----|--3---3---3---3---5---5---5---5-----|
  |                                    |                                    |
  |  E   E   E   E   E   E   E   E     |  E   E   E   E   E   E   E   E     |
eb|--0---0---7---0---3---0---5---0-----|--0---2---3---------------0---------|
Bb|--5---5---5---5---5---5---5---5-----|--3---3---3---3---1---1---1---1-----|
Gb|------------------------------------|------------------------------------|
Db|------------------------------------|------------------------------------|
Ab|------------------------------------|------------------------------------|
Eb|------------------------------------|------------------------------------|


     E   E   E   E   E   E   E   E        E   E   E   E   E   E   E   E
eb|------------------------------------|------------------------------------|
Bb|------------------------------------|------------------------------------|
Gb|--5---5---5---5---5---5---5---5-----|--5---5---5---5---7---7---7---7-----|
Db|--5---5---5---5---5---5---5---5-----|--5---5---5---5---7---7---7---7-----|
Ab|--3---3---3---3---3---3---3---3-----|--3---3---3---3---5---5---5---5-----|
Eb|------------------------------------|------------------------------------|
  |                                    |                                    |
  |  E   E   E   E   E   E   E   E     |  E   E   E   E   E   E   E   E     |
eb|--0---0---7---0---3---0---5---0-----|--0---0---7---0---3---0---5---0-----|
Bb|--5---5---5---5---5---5---5---5-----|--5---5---5---5---5---5---5---5-----|
Gb|------------------------------------|------------------------------------|
Db|------------------------------------|------------------------------------|
Ab|------------------------------------|------------------------------------|
Eb|------------------------------------|------------------------------------|


[Interlude]
   Gtr 1
     E.    E.    E.    E.    E   E        E.    E.    E.    E.    E   E     
eb|------------------------------------|------------------------------------|
Bb|o-------3-----------3---------3-----|--------3-----------3---------3-----|
Gb|------------------------------------|------------------------------------|
Db|--2-----------2-----------2---------|--2-----------2-----------2---------|
Ab|o-2-----------2-----------2---------|--2-----------2-----------2---------|
Eb|--0-----------0-----------0---------|--0-----------0-----------0---------|
  |                                    |                                    |
  |Gtr 2                               |                                    |
  |  E.    E.    E.    E.    E   E     |  E.    E.    E.    E.    E   E     |
eb|------------------------------------|------------------------------------|
Bb|o-------3-----------3---------3-----|--------3-----------3---------3-----|
Gb|------------------------------------|------------------------------------|
Db|--2-----------2-----------2---------|--2-----------2-----------2---------|
Ab|o-2-----------2-----------2---------|--2-----------2-----------2---------|
Eb|--0-----------0-----------0---------|--0-----------0-----------0---------|


     E.    E.    E.    E.    E   E        E.    E.    E   E   E   E  (E)    (x2)
eb|------------------------------------|------------------------------------|
Bb|--------3-----------3---------3-----|--------3--------------------------o|
Gb|------------------------------------|------------------------------------|
Db|--2-----------2-----------2---------|--2-----------2---5---5---7---------|
Ab|--2-----------2-----------2---------|--2-----------2---5---5---7--------o|
Eb|--0-----------0-----------0---------|--0-----------0---3---3---5---------|
  |                                    |                                    |
  |  E.    E.    E.    E.    E   E     |  E.    E.    E   E   E   E  (E)    |
eb|------------------------------------|------------------------------------|
Bb|--------3-----------3---------3-----|--------3--------------------------o|
Gb|------------------------------------|------------------12--12--11--------|
Db|--2-----------2-----------2---------|--2-----------2---x---x---x---------|
Ab|--2-----------2-----------2---------|--2-----------2---10--10--9--------o|
Eb|--0-----------0-----------0---------|--0-----------0---------------------|

   Gtr 1 & 2
     Q.          Q.          Q            Q.          Q.          Q 
eb|------------------------------------|------------------------------------|
Bb|------------------------------------|------------------------------------|
Gb|------------------------------------|------------------------------------|
Db|--2-----------2-----------2---------|--2-----------2-----------2---------|
Ab|--2-----------2-----------2---------|--2-----------2-----------2---------|
Eb|--0-----------0-----------0---------|--0-----------0-----------0---------|
  |                                    |                                    |
  |Gtr 3                               |                                    |
  |  E.    E.    E.    E.    E   E     |  E.    E.    E.    E.    E   E     |
eb|------------------------------------|------------------------------------|
Bb|--15----15----15----15----15--15----|--15----15----15----15----15--15----|
Gb|--17b19-19----19----19----19--19----|--19----19----19----19----19--19----|
Db|-------[Loosely hold this bend through out this little section]----------|
Ab|------------------------------------|------------------------------------|
Eb|------------------------------------|------------------------------------|

     Q.          Q.          Q            Q.          E   E   E   E  (E)
eb|------------------------------------|------------------------------------|
Bb|------------------------------------|------------------------------------|
Gb|------------------------------------|------------------------------------|
Db|--2-----------2-----------2---------|--2-----------2---5---5---7---------|
Ab|--2-----------2-----------2---------|--2-----------2---5---5---7---------|
Eb|--0-----------0-----------0---------|--0-----------0---3---3---5---------|
  |                                    |                                    |
  |Gtr 3                               |                                    |
  |  E.    E.    E.    E.    E   E     |  E.    E.    E.  Q       Q         |
eb|------------------------------------|------------------------------------|
Bb|--15----15----15----15----15--15----|--15----15----15--17------17--------|
Gb|--19----19----19----19----19--19----|--19----19----19--19b21---19b21~----|
Db|------------------------------------|------------------------------------|
Ab|------------------------------------|------------------------------------|
Eb|------------------------------------|------------------------------------|


   Gtr 1
     E.    E.    E.    E.    E   E        E.    E.    E.    E.    E   E     
eb|------------------------------------|------------------------------------|
Bb|--------3-----------3---------3-----|--------3-----------3---------3-----|
Gb|------------------------------------|------------------------------------|
Db|--2-----------2-----------2---------|--2-----------2-----------2---------|
Ab|--2-----------2-----------2---------|--2-----------2-----------2---------|
Eb|--0-----------0-----------0---------|--0-----------0-----------0---------|  [Guitar 3 can also be heard
  |                                    |                                    |   doing a pick slide on the 
  |Gtr 2                               |                                    |      higher strings here]
  |  E.    E.    E.    E.    E   E     |  E.    E.    E.    E.    E   E     |
eb|------------------------------------|------------------------------------|
Bb|o-------3-----------3---------3-----|--------3-----------3---------3-----|
Gb|------------------------------------|------------------------------------|
Db|--2-----------2-----------2---------|--2-----------2-----------2---------|
Ab|o-2-----------2-----------2---------|--2-----------2-----------2---------|
Eb|--0-----------0-----------0---------|--0-----------0-----------0---------|


     E.    E.    E.    E.    E   E        E.    E.    E   E   E   E  (E)    (x2)
eb|------------------------------------|------------------------------------|
Bb|--------3-----------3---------3-----|--------3---------------------------|
Gb|------------------------------------|------------------------------------|
Db|--2-----------2-----------2---------|--2-----------2---5---5---7---------|
Ab|--2-----------2-----------2---------|--2-----------2---5---5---7---------|
Eb|--0-----------0-----------0---------|--0-----------0---3---3---5---------|
  |                                    |                                    |
  |  E.    E.    E.    E.    E   E     |  E.    E.    E   E   E   E  (E)    |
eb|------------------------------------|------------------------------------|
Bb|--------3-----------3---------3-----|--------3---------------------------|
Gb|------------------------------------|------------------12--12--11--------|
Db|--2-----------2-----------2---------|--2-----------2---x---x---x---------|
Ab|--2-----------2-----------2---------|--2-----------2---10--10--9---------|
Eb|--0-----------0-----------0---------|--0-----------0---------------------|


[Chorus Build Up]
   Gtr 1
     Wx6
eb|--7---------------------------------|------------------------------------|
Bb|--8----------------[There's also some messing around --------------------|
Gb|--9---------------- by tapping the strings with the ---------------------|
Db|--9----------------------- edge of your pick]----------------------------|
Ab|--7---------------------------------|------------------------------------|
Eb|------------------------------------|------------------------------------|
  |                                    |                                    |
  |Gtr 2                               |                                    |
  |  Wx6                               |                                    |
eb|------------------------------------|------------------------------------|
Bb|------------------------------------|------------------------------------|
Gb|--9---------------------------------|------------------------------------|
Db|--9---------------------------------|------------------------------------|
Ab|--7---------------------------------|------------------------------------|
Eb|------------------------------------|------------------------------------|


     Q.          H               E       +Q       Q       Q       Q
eb|------------------------------------|------------------------------------|
Bb|------------------------------------|------------------------------------|
Gb|--12----------11--------------9-----|----------7-------9-------11--------|
Db|--x-----------x---------------x-----|----------x-------x-------x---------|
Ab|--10----------9---------------7-----|----------5-------7-------9---------|
Eb|------------------------------------|------------------------------------|
  |                                    |                                    |
  |                                    |                                    |
eb|------------------------------------|------------------------------------|
Bb|------------------------------------|------------------------------------|
Gb|--5---------------------------------|------------------------------------|
Db|--5---------------------------------|------------------------------------|
Ab|--3---------------------------------|------------------------------------|
Eb|------------------------------------|------------------------------------|

                                        2/4
     Q.          H               E       +Q.          E
eb|------------------------------------|--------------------|
Bb|------------------------------------|--------------------|
Gb|--12----------11--------------9-----|--------------11----|
Db|--x-----------x---------------x-----|--------------x-----|
Ab|--10----------9---------------7-----|--------------9-----|
Eb|------------------------------------|--------------------|
  |                                    |                    |
  |  Q.          H               E     | +Q.          E     |
eb|------------------------------------|--------------------|
Bb|------------------------------------|--------------------|
Gb|--16----------14--------------12----|--------------14----|
Db|--x-----------x---------------x-----|--------------x-----|
Ab|--14----------12--------------10----|--------------12----|
Eb|------------------------------------|--------------------|

  4/4
    +W                                   +W
eb|------------------------------------|------------------------------------|
Bb|------------------------------------|------------------------------------|
Gb|------------------------------------|------------------------------------|
Db|------------------------------------|------------------------------------|
Ab|------------------------------------|------------------------------------|
Eb|------------------------------------|------------------------------------|
  |                                    |                                    |
  | +W                                 | +H               E   E   E   E     |
eb|------------------------------------|------------------------------------|
Bb|------------------------------------|------------------------------------|
Gb|------------------------------------|------------------11-/12-\11--9-----|
Db|------------------------------------|------------------x---x---x---x-----|
Ab|------------------------------------|------------------9--/10-\9---7-----|
Eb|------------------------------------|------------------------------------|


[Chorus 4]
   Gtr 1 & 2
     E  (Q.)        (Q.)         E
eb|------------------------------------|
Bb|------------------------------------|
Gb|--9\--------------------------------|
Db|--9\--------------------------2-----|
Ab|--7\--------------------------2-----|
Eb|------------------------------0-----|
  |                                    |
  |Gtr 3                               |
  |  E   E   E   E   E   E  (E)  E     |
eb|--0---0---7---0---3---5-------0-----|
Bb|--5---5---5---5---5---5-------5-----|
Gb|------------------------------------|
Db|------------------------------------|
Ab|------------------------------------|
Eb|------------------------------------|


     E   E   E   E   E   E   E   E        E   E   E   E   E   E   E   E
eb|------------------------------------|------------------------------------|
Bb|------------------------------------|------------------------------------|
Gb|------------------------------------|------------------------------------|
Db|--2---2---2---2---2---2---2---2-----|--5---5---5---5---7---7---7---7-----|
Ab|--2---2---2---2---2---2---2---2-----|--5---5---5---5---7---7---7---7-----|
Eb|--0---0---0---0---0---0---0---0-----|--3---3---3---3---5---5---5---5-----|
  |                                    |                                    |
  |  E   E   E   E   E   E   E   E     |  E   E   E   E   E   E   E   E     |
eb|--0---0---7---0---3---0---5---0-----|--0---2---3---------------0---------|
Bb|--5---5---5---5---5---5---5---5-----|--3---3---3---3---1---1---1---1-----|
Gb|------------------------------------|------------------------------------|
Db|------------------------------------|------------------------------------|
Ab|------------------------------------|------------------------------------|
Eb|------------------------------------|------------------------------------|


     E   E   E   E   E   E   E   E        E   E   E   E   E   E   E   E
eb|------------------------------------|------------------------------------|
Bb|------------------------------------|------------------------------------|
Gb|------------------------------------|--7---7---7---7---5---5---5---5-----|
Db|--2---2---2---2---2---2---2---2-----|--7---7---7---7---5---5---5---5-----|
Ab|--2---2---2---2---2---2---2---2-----|--5---5---5---5---3---3---3---3-----|
Eb|--0---0---0---0---0---0---0---0-----|------------------------------------|
  |                                    |                                    |
  |  E   E   E   E   E   E   E   E     |  E   E   E   E   E   E   E   E     |
eb|--0---0---7---0---3---0---5---0-----|--0---2---3---------------0---------|
Bb|--5---5---5---5---5---5---5---5-----|--3---3---3---3---1---1---1---1-----|
Gb|------------------------------------|------------------------------------|
Db|------------------------------------|------------------------------------|
Ab|------------------------------------|------------------------------------|
Eb|------------------------------------|------------------------------------|


     E   E   E   E   E   E   E   E        E   E   E   Q       Q.
eb|--x---x-----------------------------|------------------------------------|
Bb|--x---x-----------------------------|------------------------------------|
Gb|--x---x-----------------------------|------------------------------------|
Db|--x---x---2---2---2---2---2---2-----|--5---5---5---7-------9-------------|
Ab|--x---x---2---2---2---2---2---2-----|--5---5---5---7-------9-------------|
Eb|--x---x---0---0---0---0---0---0-----|--3---3---3---5-------7-------------|
  |                                    |                                    |
  |  E   E   E   E   E   E   E   E     |  E   E   E   E   E   E   E   E     |
eb|--0---0---7---0---3---0---5---0-----|--0---2---3---------------0---------|
Bb|--5---5---5---5---5---5---5---5-----|--3---3---3---3---1---1---1---1-----|
Gb|------------------------------------|------------------------------------|
Db|------------------------------------|------------------------------------|
Ab|------------------------------------|------------------------------------|
Eb|------------------------------------|------------------------------------|


     E   E   E   E   E   E   E   E        E   E   E   E   E   E   E   E
eb|------------------------------------|------------------------------------|
Bb|------------------------------------|------------------------------------|
Gb|--5---5---5---5---5---5---5---5-----|--5---5---5---5---5---5---5---5-----|
Db|--5---5---5---5---5---5---5---5-----|--5---5---5---5---5---5---5---5-----|
Ab|--3---3---3---3---3---3---3---3-----|--3---3---3---3---3---3---3---3-----|
Eb|------------------------------------|------------------------------------|
  |                                    |                                    |
  |  E   E   E   E   E   E   E   E     |  E   E   E   E   E   E   E   E     |
eb|--0---0---7---0---3---0---5---0-----|--0---0---7---0---3---0---5---0-----|
Bb|--5---5---5---5---5---5---5---5-----|--5---5---5---5---5---5---5---5-----|
Gb|------------------------------------|------------------------------------|
Db|------------------------------------|------------------------------------|
Ab|------------------------------------|------------------------------------|
Eb|------------------------------------|------------------------------------|


     E   E   E   E   E   E   E   E        E   E   E   E   E   E   E   E
eb|------------------------------------|------------------------------------|
Bb|------------------------------------|------------------------------------|
Gb|--7---7---7---7---7---7---7---7-----|--7---7---7---7---7---7---7---7-----|
Db|--7---7---7---7---7---7---7---7-----|--7---7---7---7---7---7---7---7-----|
Ab|--5---5---5---5---5---5---5---5-----|--5---5---5---5---5---5---5---5-----|
Eb|------------------------------------|------------------------------------|
  |                                    |                                    |
  |  E   E   E   E   E   E   E   E     |  E   E   E   E   E   E   E   E     |
eb|--0---0---7---0---3---0---5---0-----|--0---0---7---0---3---0---5---0-----|
Bb|--5---5---5---5---5---5---5---5-----|--5---5---5---5---5---5---5---5-----|
Gb|------------------------------------|------------------------------------|
Db|------------------------------------|------------------------------------|
Ab|------------------------------------|------------------------------------|
Eb|------------------------------------|------------------------------------|


[Outro]
   Gtr 1
     E.    E.    E.    E.    E   E        E.    E.    E   E   E   E  (E)
eb|------------------------------------|------------------------------------|
Bb|--------3-----------3---------3-----|--------3---------------------------|
Gb|------------------------------------|------------------------------------|
Db|--2-----------2-----------2---------|--2-----------2---5---5---7---------|
Ab|--2-----------2-----------2---------|--2-----------2---5---5---7---------|
Eb|--0-----------0-----------0---------|--0-----------0---3---3---5---------|
  |                                    |                                    |
  |Gtr 2                               |                                    |
  |  E.    E.    E.    E.    E   E     |  E.    E.    E   E   E   E  (E)    |
eb|------------------------------------|------------------------------------|
Bb|--------3-----------3---------3-----|--------3---------------------------|
Gb|------------------------------------|------------------12--12--11--------|
Db|--2-----------2-----------2---------|--2-----------2---x---x---x---------|
Ab|--2-----------2-----------2---------|--2-----------2---10--10--9---------|
Eb|--0-----------0-----------0---------|--0-----------0---------------------|


************************************

|  ~   Vibrato
|  \   Slide down
|  x   Dead note
|  PM  Palm mute
|  h   Hammer-on
|  p   Pull-off
|  /   Slide up
|  b   Bend
|  r   Release Bend
| [n]  Natural Harmonic
|  S   Sixteenth note
|  E   Eighth note
|  Q   Quarter note
|  H   Half note
|  W   Whole note
|  .   Dotted note
| (N)  Rest
|  +   Add note value
|o o|  Reprise

************************************

            
            
Suggest correction
Creating personal tab
Creating personal tab
You can edit any tab online and save it as your Personal.

You can edit, replace or remove any tab part or add personal notes – all changes will be seen only by you.

Personal tabs can be accessed anytime from any device, even offline.
Learn more »
Give kudos to tab author, rate the tab!
1 2 3 4 5
comments
print report bad tab
1 comment total.
0 reply
maarten_vangest 198 Sep 17, 2017 03:31 AM

Thanks to write the tab (I assume you used Trizz's cover) It's way easier to go from TAB to CDLC then from Video to CDLC ^^

guest
You may want to rate the tab now too:
select rating
Wanna post a correction for this tab? Suggest correction