Oops, an error
Loading. Please wait.

I Dont Want To Be Here Anymore Tab

version 1
version 1

Acoustic

Whole song

Interactive

12,837 views 39 this week
6 commentsread comments
1 2 3 4 5
excellent!
x 14
add to favorites
launch autoscroll
font size
0
reset
how to read this tab
guitar tuner
Autoscroll
slow
fast
+/-
esc
set tempo
stop
Help us to improve Ultimate-Guitar.com Take our survey!
×
Author
Difficulty
Tuning
intermediate
D# G# C# F# A# D#
-------------------------------------------------------------------------------------------------
                 I DON'T WANT TO BE HERE ANYMORE (ACOUSTIC) - Rise Against
-------------------------------------------------------------------------------------------------

This is the version Tim played in the radio, you can find the video on youtube.
https://www.youtube.com/watch?v=E92nvSms3QA

It took me a bit to figure it out but I think it’s 100 % correct.
But if you find any mistakes, feel free to leave a comment!

Tabbed by: yannicktross1
E-Mail: yannicktross1@gmail.com

Tuning: Eb

Capo 4th Fret


Intro:

|----x----|
|----3----|
|----x----|
|----x----|
|----x----|
|----3----|

|----x-x---x-x---x-x---x-x----|    (Use your middlefinger for the 3‘s
|----x-x---x-x---x-x---3-3----|     and your pinky for the 5’s)
|----x-x---3-3---5-5---x-x----| x4
|----5-5---x-x---x-x---x-x----|
|----x-x---x-x---x-x---x-x----|
|----3-3---3-3---3-3---3-3----|    (Use your indexfinger for the 3’s here)
PM:  * *

|----x-x-x-x-x-x-x-x----------------------------------------------------------|
|----3-3-3-3-3-3-3-3---------------------1-1-1-1-1-1-1-1---4-4-4-4-4-4-4-4----|
|----x-x-x-x-x-x-x-x---3-3-3-3-3-3-3-3---2-2-2-2-2-2-2-2---x-x-x-x-x-x-x-x----|
|----x-x-x-x-x-x-x-x---3-3-3-3-3-3-3-3---3-3-3-3-3-3-3-3---5-5-5-5-5-5-5-5----|
|----x-x-x-x-x-x-x-x---1-1-1-1-1-1-1-1---3-3-3-3-3-3-3-3---6-6-6-6-6-6-6-6----|
|----3-3-3-3-3-3-3-3----------------------------------------------------------|

|----3-3-3-3-3-3-3-3---3-3-3-3-3-3-3-3-------------x-x-x-------------x-x-x----|
|----3-3-3-3-3-3-3-3---3-3-3-3-3-3-3-3---1-1-1-1-1-x-x-x-------------x-x-x----|
|----x-x-x-x-x-x-x-x---x-x-x-x-x-x-x-x---2-2-2-2-2-x-x-x---5-5-5-5-5-x-x-x----|
|----x-x-x-x-x-x-x-x---x-x-x-x-x-x-x-x---3-3-3-3-3-x-x-x---5-5-5-5-5-x-x-x----|
|----x-x-x-x-x-x-x-x---1-1-1-1-1-1-1-1---3-3-3-3-3-x-x-x---3-3-3-3-3-x-x-x----|
|----3-3-3-3-3-3-3-3---x-x-x-x-x-x-x-x-------------x-x-x-------------x-x-x----|

|----3-3-3-3-3-3-3-3---3-3-3-3-3-3-3-3----------------------------------------|
|----3-3-3-3-3-3-3-3---3-3-3-3-3-3-3-3---1-1-1-1-1-1-1-1---4-4-4-4-4-4-4-4----|
|----x-x-x-x-x-x-x-x---x-x-x-x-x-x-x-x---2-2-2-2-2-2-2-2---x-x-x-x-x-x-x-x----|
|----x-x-x-x-x-x-x-x---x-x-x-x-x-x-x-x---3-3-3-3-3-3-3-3---5-5-5-5-5-5-5-5----|
|----x-x-x-x-x-x-x-x---1-1-1-1-1-1-1-1---3-3-3-3-3-3-3-3---6-6-6-6-6-6-6-6----|
|----3-3-3-3-3-3-3-3---x-x-x-x-x-x-x-x----------------------------------------|

|----x-x-x-x-x-x-x-x---x-x-x-x-x-x-x-x---3-3-3-3-3-3-3-3-3-3-3-3---3---3---3---3----|
|----1-1-1-1-1-1-1-1---x-x-x-x-x-x-x-x---3-3-3-3-3-3-3-3-3-3-3-3---3---3---3---3----|
|----x-x-x-x-x-x-x-x---2-2-2-2-2-2-2-2---x-x-x-x-x-x-x-x-x-x-x-x---x---x---x---x----|
|----x-x-x-x-x-x-x-x---x-x-x-x-x-x-x-x---x-x-x-x-x-x-x-x-x-x-x-x---x---x---x---x----|
|----3-3-3-3-3-3-3-3---3-3-3-3-3-3-3-3---x-x-x-x-x-x-x-x-x-x-x-x---x---x---x---x----|
|----x-x-x-x-x-x-x-x---x-x-x-x-x-x-x-x---3-3-3-3-3-3-3-3-3-3-3-3---1---1---1---3----|


Verse:

|----3-3-3-3-3-3-3-3---3-3-3-3-3-3-3-3---3-3-3-3-3-3-3-3---3-3-3-3-3-3-3-3----|
|----3-3-3-3-3-3-3-3---3-3-3-3-3-3-3-3---3-3-3-3-3-3-3-3---3-3-3-3-3-3-3-3----|
|----x-x-x-x-x-x-x-x---x-x-x-x-x-x-x-x---x-x-x-x-x-x-x-x---x-x-x-x-x-x-x-x----|
|----x-x-x-x-x-x-x-x---x-x-x-x-x-x-x-x---x-x-x-x-x-x-x-x---x-x-x-x-x-x-x-x----|
|----x-x-x-x-x-x-x-x---1-1-1-1-1-1-1-1---x-x-x-x-3-3-3-3---x-x-x-x-x-x-x-x----|
|----3-3-3-3-3-3-3-3---x-x-x-x-x-x-x-x---1-1-1-1-x-x-x-x---3-3-3-3-3-3-3-3----|

|----3-3-3-3-3-3-3-3---3-3-3-3-3-3-3-3---3-3-3-3-3-3-3-3-3-3-3-3---3---3---3----|
|----3-3-3-3-3-3-3-3---3-3-3-3-3-3-3-3---3-3-3-3-3-3-3-3-3-3-3-3---3---3---3----|
|----x-x-x-x-x-x-x-x---x-x-x-x-x-x-x-x---x-x-x-x-x-x-x-x-x-x-x-x---0---0---0----|
|----x-x-x-x-x-x-x-x---x-x-x-x-x-x-x-x---x-x-x-x-x-x-x-x-x-x-x-x---0---1---0----|
|----x-x-x-x-x-x-x-x---1-1-1-1-x-x-x-x---3-3-3-3-3-3-3-3-3-3-3-3---0---0---0----|
|----3-3-3-3-3-3-3-3---x-x-x-x-1-1-1-1---x-x-x-x-x-x-x-x-x-x-x-x---x---x---x----|


Repeat Verse


Prechorus:

Part I:

|----------x-x---------x-x---------x-x-x-x----|
|----------x-x---------x-x---------x-x-x-x----|
|----3-3---x-x---5-5---x-x---------x-x-x-x----| x2
|----3-3---x-x---5-5---x-x---5-5---x-x-x-x----|
|----1-1---x-x---3-3---x-x---5-5---x-x-x-x----|
|----------x-x---------x-x---3-3---x-x-x-x----|

|----------x-x---------x-x---------x-x---------x-x----------------------------------------|
|----------x-x---------x-x---------x-x---------x-x----------------------------------------|
|----3-3---x-x---5-5---x-x---------x-x---5-5---x-x---7-7-7-7-7-7-7-7---5-5-5-5-5-5-5-5----|
|----3-3---x-x---5-5---x-x---5-5---x-x---5-5---x-x---7-7-7-7-7-7-7-7---5-5-5-5-5-5-5-5----|
|----1-1---x-x---3-3---x-x---5-5---x-x---3-3---x-x---5-5-5-5-5-5-5-5---3-3-3-3-3-3-3-3----|
|----------x-x---------x-x---3-3---x-x---------x-x----------------------------------------|


Part II:

|----3----1----5----3-----3----1----5----3-3-3-3-3----|
|----3----3----6----4-----3----3----6----4-4-4-4-4----|
|----2----3----5----3-----2----3----5----3-3-3-3-3----|
|-----------------------------------------------------|
|-----------------------------------------------------|
|-----------------------------------------------------|


Chorus:

|----3-3-3-3-3-3-3-3---3-3-3-3-3-3-3-3----------------------------------------|
|----3-3-3-3-3-3-3-3---3-3-3-3-3-3-3-3---1-1-1-1-1-1-1-1----------------------|
|----x-x-x-x-x-x-x-x---x-x-x-x-x-x-x-x---2-2-2-2-2-2-2-2---5-5-5-5-5-5-5-5----| x2
|----x-x-x-x-x-x-x-x---x-x-x-x-x-x-x-x---3-3-3-3-3-3-3-3---5-5-5-5-5-5-5-5----|
|----x-x-x-x-x-x-x-x---1-1-1-1-1-1-1-1---3-3-3-3-3-3-3-3---3-3-3-3-3-3-3-3----|
|----3-3-3-3-3-3-3-3---x-x-x-x-x-x-x-x----------------------------------------|

|----3-3-3-3-3-3-3-3---3-3-3-3-3-3-3-3----------------------------------------|
|----3-3-3-3-3-3-3-3---3-3-3-3-3-3-3-3---1-1-1-1-1-1-1-1---4-4-4-4-4-4-4-4----|
|----x-x-x-x-x-x-x-x---x-x-x-x-x-x-x-x---2-2-2-2-2-2-2-2---x-x-x-x-x-x-x-x----|
|----x-x-x-x-x-x-x-x---x-x-x-x-x-x-x-x---3-3-3-3-3-3-3-3---5-5-5-5-5-5-5-5----|
|----x-x-x-x-x-x-x-x---1-1-1-1-1-1-1-1---3-3-3-3-3-3-3-3---6-6-6-6-6-6-6-6----|
|----3-3-3-3-3-3-3-3---x-x-x-x-x-x-x-x----------------------------------------|

|----3-3-3-3-3-3-3-3--------------------------------------------|
|----3-3-3-3-3-3-3-3--------------------------------------------|
|----x-x-x-x-x-x-x-x---8-8-8-8-8-8-8-8---------------------5----|
|----x-x-x-x-x-x-x-x---8-8-8-8-8-8-8-8---8-8-8-8-8-8-8-8---5----|
|----x-x-x-x-x-x-x-x---6-6-6-6-6-6-6-6---8-8-8-8-8-8-8-8---3----|
|----3-3-3-3-3-3-3-3---------------------6-6-6-6-6-6-6-6--------|

|----3-3-3-3-3-3-3-3-3-3-3-3-----3---3---3---3----|
|----3-3-3-3-3-3-3-3-3-3-3-3-----3---3---3---3----|
|----x-x-x-x-x-x-x-x-x-x-x-x-----x---x---x---x----|
|----x-x-x-x-x-x-x-x-x-x-x-x-----x---x---x---x----|
|----x-x-x-x-x-x-x-x-x-x-x-x-----x---x---x---x----|
|----3-3-3-3-3-3-3-3-3-3-3-3-----1---1---1---3----|


Verse:

|----3-3-3-3-3-3-3-3---3-3-3-3-3-3-3-3---3-3-3-3-3-3-3-3---3-3-3-3-3-3-3-3----|
|----3-3-3-3-3-3-3-3---3-3-3-3-3-3-3-3---3-3-3-3-3-3-3-3---3-3-3-3-3-3-3-3----|
|----x-x-x-x-x-x-x-x---x-x-x-x-x-x-x-x---x-x-x-x-x-x-x-x---x-x-x-x-x-x-x-x----|
|----x-x-x-x-x-x-x-x---x-x-x-x-x-x-x-x---x-x-x-x-x-x-x-x---x-x-x-x-x-x-x-x----|
|----x-x-x-x-x-x-x-x---1-1-1-1-1-1-1-1---x-x-x-x-3-3-3-3---x-x-x-x-x-x-x-x----|
|----3-3-3-3-3-3-3-3---x-x-x-x-x-x-x-x---1-1-1-1-x-x-x-x---3-3-3-3-3-3-3-3----|
PM:  * * * * * * * *   * * * * * * * *   * * * * * * * *   * * * * * * * *

|----3-3-3-3-3-3-3-3---3-3-3-3-3-3-3-3---3-3-3-3-3-3-3-3-3-3-3-3---------------|
|----3-3-3-3-3-3-3-3---3-3-3-3-3-3-3-3---3-3-3-3-3-3-3-3-3-3-3-3---------------|
|----x-x-x-x-x-x-x-x---x-x-x-x-x-x-x-x---x-x-x-x-x-x-x-x-x-x-x-x----------3----|
|----x-x-x-x-x-x-x-x---x-x-x-x-x-x-x-x---x-x-x-x-x-x-x-x-x-x-x-x------3-5------|
|----x-x-x-x-x-x-x-x---1-1-1-1-x-x-x-x---3-3-3-3-3-3-3-3-3-3-3-3----5----------|
|----3-3-3-3-3-3-3-3---x-x-x-x-1-1-1-1---x-x-x-x-x-x-x-x-x-x-x-x---------------|
PM:  * * * * * * * *


Repeat Prechorus Part I


Chorus:


|----3-3-3-3-3-3-3-3---3-3-3-3-3-3-3-3---3-3-3-3-3-3-3-3---3-3-3-3-3-3-3-3----|
|----3-3-3-3-3-3-3-3---3-3-3-3-3-3-3-3---3-3-3-3-3-3-3-3---3-3-3-3-3-3-3-3----|
|----x-x-x-x-x-x-x-x---x-x-x-x-x-x-x-x---x-x-x-x-x-x-x-x---x-x-x-x-x-x-x-x----| x2
|----x-x-x-x-x-x-x-x---x-x-x-x-x-x-x-x---x-x-x-x-x-x-x-x---x-x-x-x-x-x-x-x----|
|----x-x-x-x-x-x-x-x---1-1-1-1-1-1-1-1---x-x-x-x-x-x-x-x---3-3-3-3-3-3-3-3----|
|----3-3-3-3-3-3-3-3---x-x-x-x-x-x-x-x---1-1-1-1-1-1-1-1---x-x-x-x-x-x-x-x----|

                                                    |----3-3-3-3-3---x-x-x----|
                                                    |----3-3-3-3-3---x-x-x----|
                                         2nd time   |----x-x-x-x-x---x-x-x----| 
                                         ends with  |----x-x-x-x-x---x-x-x----| 
                                                    |----3-3-3-3-3---x-x-x----|
                                                    |----x-x-x-x-x---x-x-x----|

|----3-3-3-3-3-3-3-3----------------------------------------------------------|
|----3-3-3-3-3-3-3-3---------------------1-1-1-1-1-1-1-1---4-4-4-4-4-4-4-4----|
|----x-x-x-x-x-x-x-x---3-3-3-3-3-3-3-3---2-2-2-2-2-2-2-2---x-x-x-x-x-x-x-x----|
|----x-x-x-x-x-x-x-x---3-3-3-3-3-3-3-3---3-3-3-3-3-3-3-3---5-5-5-5-5-5-5-5----|
|----x-x-x-x-x-x-x-x---1-1-1-1-1-1-1-1---3-3-3-3-3-3-3-3---6-6-6-6-6-6-6-6----|
|----3-3-3-3-3-3-3-3----------------------------------------------------------|

|----3-3-3-3-3-3-3-3----------------------------------------------------|
|----3-3-3-3-3-3-3-3----------------------------------------------------|
|----x-x-x-x-x-x-x-x---3-3-3-3-3-3-3-3---------------------5-5---7-7----|
|----x-x-x-x-x-x-x-x---3-3-3-3-3-3-3-3---3-3-3-3-3-3-3-3---5-5---7-7----|
|----x-x-x-x-x-x-x-x---1-1-1-1-1-1-1-1---3-3-3-3-3-3-3-3---3-3---5-5----|
|----3-3-3-3-3-3-3-3---------------------1-1-1-1-1-1-1-1----------------|


Bridge:

|----------------------------------------3-3-3-3-3-3-3-3-3-3-3-3-3-3---3-3----|
|----------------------1-1-1-1-1-1-1-1---3-3-3-3-3-3-3-3-3-3-3-3-3-3---3-3----|
|----8-8-8-8-8-8-8-8---2-2-2-2-2-2-2-2---x-x-x-x-x-x-x-x-x-x-x-x-x-x---x-x----|
|----8-8-8-8-8-8-8-8---3-3-3-3-3-3-3-3---x-x-x-x-x-x-x-x-x-x-x-x-x-x---2-2----|
|----6-6-6-6-6-6-6-6---3-3-3-3-3-3-3-3---x-x-x-x-x-x-x-x-x-x-x-x-x-x---x-x----|
|----------------------------------------3-3-3-3-3-3-3-3-3-3-3-3-3-3---x-x----|

|----------------------------------------3-3-3-3-3-3-3-3-3-3-3-3-3-3---3-3----|
|----------------------1-1-1-1-1-1-1-1---3-3-3-3-3-3-3-3-3-3-3-3-3-3---3-3----|
|----3-3-3-3-3-3-3-3---2-2-2-2-2-2-2-2---x-x-x-x-x-x-x-x-x-x-x-x-x-x---x-x----|
|----3-3-3-3-3-3-3-3---3-3-3-3-3-3-3-3---x-x-x-x-x-x-x-x-x-x-x-x-x-x---2-2----|
|----1-1-1-1-1-1-1-1---3-3-3-3-3-3-3-3---x-x-x-x-x-x-x-x-x-x-x-x-x-x---x-x----|
|----------------------------------------3-3-3-3-3-3-3-3-3-3-3-3-3-3---x-x----|

|----------------------------------------------------------3-3-3-3-3-3-3-3----|
|----------------------1-1-1-1-1-1-1-1---------------------3-3-3-3-3-3-3-3----|
|----3-3-3-3-3-3-3-3---2-2-2-2-2-2-2-2---5-5-5-5-5-5-5-5---x-x-x-x-x-x-x-x----|
|----3-3-3-3-3-3-3-3---3-3-3-3-3-3-3-3---5-5-5-5-5-5-5-5---x-x-x-x-x-x-x-x----|
|----1-1-1-1-1-1-1-1---3-3-3-3-3-3-3-3---3-3-3-3-3-3-3-3---x-x-x-x-x-x-x-x----|
|----------------------------------------------------------3-3-3-3-3-3-3-3----|

|-------------------------------------------------------------------------|
|--------------------------------------1-1-1-1-1-1-1-1-1-1-1-1-1-1-1-1----|
|----3-3-3-3-3-3-3-3-3-3-3-3-3-3-3-3---2-2-2-2-2-2-2-2-2-2-2-2-2-2-2-2----|
|----3-3-3-3-3-3-3-3-3-3-3-3-3-3-3-3---3-3-3-3-3-3-3-3-3-3-3-3-3-3-3-3----|
|----1-1-1-1-1-1-1-1-1-1-1-1-1-1-1-1---3-3-3-3-3-3-3-3-3-3-3-3-3-3-3-3----|
|-------------------------------------------------------------------------|

|---------------------------------------|
|--------3-------3-------3-------1------|
|------0---0---0---0---0---0---0---0----| x3
|------------1---------------3----------|
|--------------------1------------------|
|----3----------------------------------|

|-------------------------------------------|
|--------3-------3-------3-----1-1-1-1-1----|
|------0---0---0---0---0---0---2-2-2-2-2----|
|------------1-----------------3-3-3-2-2----|
|--------------------1---------3-3-3-3-3----|
|----3--------------------------------------|


Outro:

|----3-3-3-3-3-3-3-3----------------------------------------------------------|
|----3-3-3-3-3-3-3-3---------------------1-1-1-1-1-1-1-1---4-4-4-4-4-4-4-4----|
|----x-x-x-x-x-x-x-x---3-3-3-3-3-3-3-3---2-2-2-2-2-2-2-2---x-x-x-x-x-x-x-x----|
|----x-x-x-x-x-x-x-x---3-3-3-3-3-3-3-3---3-3-3-3-3-3-3-3---5-5-5-5-5-5-5-5----|
|----x-x-x-x-x-x-x-x---1-1-1-1-1-1-1-1---3-3-3-3-3-3-3-3---6-6-6-6-6-6-6-6----|
|----3-3-3-3-3-3-3-3----------------------------------------------------------|

|----3-3-3-3-3-3-3-3----------------------------------------------------------|
|----3-3-3-3-3-3-3-3---------------------1-1-1-1-1-1-1-1----------------------|
|----x-x-x-x-x-x-x-x---3-3-3-3-3-3-3-3---2-2-2-2-2-2-2-2---5-5-5-5-5-5-5-5----|
|----x-x-x-x-x-x-x-x---3-3-3-3-3-3-3-3---3-3-3-3-3-3-3-3---5-5-5-5-5-5-5-5----|
|----x-x-x-x-x-x-x-x---1-1-1-1-1-1-1-1---3-3-3-3-3-3-3-3---3-3-3-3-3-3-3-3----|
|----3-3-3-3-3-3-3-3----------------------------------------------------------|

|----3-3-3-3-3-3-3-3----------------------------------------------------------|
|----3-3-3-3-3-3-3-3---------------------1-1-1-1-1-1-1-1---4-4-4-4-4-4-4-4----|
|----x-x-x-x-x-x-x-x---3-3-3-3-3-3-3-3---2-2-2-2-2-2-2-2---x-x-x-x-x-x-x-x----|
|----x-x-x-x-x-x-x-x---3-3-3-3-3-3-3-3---3-3-3-3-3-3-3-3---5-5-5-5-5-5-5-5----|
|----x-x-x-x-x-x-x-x---1-1-1-1-1-1-1-1---3-3-3-3-3-3-3-3---6-6-6-6-6-6-6-6----|
|----3-3-3-3-3-3-3-3----------------------------------------------------------|

|----3-3-3-3-3-3-3-3------------------------------------------------------|
|----3-3-3-3-3-3-3-3---------------------1-1-1-1-1-1-1-1------------------|
|----x-x-x-x-x-x-x-x---3-3-3-3-3-3-3-3---2-2-2-2-2-2-2-2---8-8---10-10----|
|----x-x-x-x-x-x-x-x---3-3-3-3-3-3-3-3---3-3-3-3-3-3-3-3---8-8---10-10----|
|----x-x-x-x-x-x-x-x---1-1-1-1-1-1-1-1---3-3-3-3-3-3-3-3---6-6----8--8----|
|----3-3-3-3-3-3-3-3------------------------------------------------------|

|----3-3-3-3-3-3-3-3----------------------------------------------------------|
|----3-3-3-3-3-3-3-3---------------------1-1-1-1-1-1-1-1----------------------|
|----x-x-x-x-x-x-x-x---3-3-3-3-3-3-3-3---2-2-2-2-2-2-2-2---5-5-5-5-5-5-5-5----|
|----x-x-x-x-x-x-x-x---3-3-3-3-3-3-3-3---3-3-3-3-3-3-3-3---5-5-5-5-5-5-5-5----|
|----x-x-x-x-x-x-x-x---1-1-1-1-1-1-1-1---3-3-3-3-3-3-3-3---3-3-3-3-3-3-3-3----|
|----3-3-3-3-3-3-3-3----------------------------------------------------------|

|----3-3-3-3-3-3-3-3-------------------------------x-x-x----------------------|
|----3-3-3-3-3-3-3-3---------------------1-1-1-1-1-x-x-x----------------------|
|----x-x-x-x-x-x-x-x---3-3-3-3-3-3-3-3---2-2-2-2-2-x-x-x---5-5-5-5-5----------|
|----x-x-x-x-x-x-x-x---3-3-3-3-3-3-3-3---3-3-3-3-3-x-x-x---5-5-5-5-5----------|
|----x-x-x-x-x-x-x-x---1-1-1-1-1-1-1-1---3-3-3-3-3-x-x-x---3-3-3-3-3----------|
|----3-3-3-3-3-3-3-3-------------------------------x-x-x----------------------|




That’s it! Hope you guys enjoy it!


PS: I saw different videos of Tim performing this song, and he always
    uses different variations of the chorus.
    Sometimes he uses these G-Chord variation (only switching his
    indexfinger) and sometimes he uses powerchords.
    You can find both variations in my tab but it doesn't really
    matter at which chorus you use which variation.
    It's pretty much the same.
    This particular tab refers to his performance at Chom 977 Radio (link above)

************************************

| /   slide up
| \   slide down
| h   hammer-on
| p   pull-off
| ~   vibrato
| +   harmonic
| x   Mute note
| b   Bend
| pb  Pre-bend
| br  Bend release
| pbr Pre-bend release
| brb Bend release bend

************************************
Suggest correction
comments
print report bad tab
6 comments total. Showing first comments.
+1 reply
MyLifeForPunk 20 wrote on August 12 2014, 11:09 am

Hey Yannick, this is Joe from Youtube. Thanks for the tab. It is very accurate with clean formatting and easy to understand. Rock On!

0 reply
yannicktross1 100 wrote on August 12 2014, 11:13 am, edited at 06:59 pm

Thanks alot! Glad to hear that I've done something right with my first tab!

0 reply
Eeeeoooh 10 wrote on October 29 2014, 04:39 pm

Hi, im kind of new to play guitar but i feel like this song is not impossible for me to learn. So when i tune the guitar and put on the capo i cant get it to sound right. Is there a specific way to play it?
I would just like to get some tips on how to make it sound right.
Thanks

guest
You may want to rate the tab now too:
select rating
Please do not post tabs as comments. Select "correction" instead!