Oops, an error
Loading. Please wait.

I Dont Want To Be Here Anymore Tab

version 1
version 1

Acoustic

Whole song

Interactive

13,365 views 51 this week
6 commentsread comments
1 2 3 4 5
x 15
add to favorites
launch autoscroll
font size
0
reset
how to read this tab
guitar tuner
Autoscroll
slow
fast
+/-
esc
set tempo
stop
Help us to improve Ultimate-Guitar.com Take our survey!
×
Author
Difficulty
Tuning
Capo
intermediate
D# G# C# F# A# D#
4th fret
-------------------------------------------------------------------------------------------------
                 I DON'T WANT TO BE HERE ANYMORE (ACOUSTIC) - Rise Against
-------------------------------------------------------------------------------------------------

This is the version Tim played in the radio, you can find the video on youtube.
https://www.youtube.com/watch?v=E92nvSms3QA

It took me a bit to figure it out but I think it’s 100 % correct.
But if you find any mistakes, feel free to leave a comment!

Tabbed by: yannicktross1
E-Mail: yannicktross1@gmail.com

Tuning: Eb

Capo 4th Fret


[Intro]

D#|----x----|
A#|----3----|
F#|----x----|
C#|----x----|
G#|----x----|
D#|----3----|

D#|----x-x---x-x---x-x---x-x----|     (Use your middlefinger for the 3‘s
A#|----x-x---x-x---x-x---3-3----|      and your pinky for the 5’s)
F#|----x-x---3-3---5-5---x-x----| 
C#|----5-5---x-x---x-x---x-x----|
G#|----x-x---x-x---x-x---x-x----|
D#|----3-3---3-3---3-3---3-3----|(x4) (Use your indexfinger for the 3’s here)
PM:    * *

D#|----x-x-x-x-x-x-x-x----------------------------------------------------------|
A#|----3-3-3-3-3-3-3-3---------------------1-1-1-1-1-1-1-1---4-4-4-4-4-4-4-4----|
F#|----x-x-x-x-x-x-x-x---3-3-3-3-3-3-3-3---2-2-2-2-2-2-2-2---x-x-x-x-x-x-x-x----|
C#|----x-x-x-x-x-x-x-x---3-3-3-3-3-3-3-3---3-3-3-3-3-3-3-3---5-5-5-5-5-5-5-5----|
G#|----x-x-x-x-x-x-x-x---1-1-1-1-1-1-1-1---3-3-3-3-3-3-3-3---6-6-6-6-6-6-6-6----|
D#|----3-3-3-3-3-3-3-3----------------------------------------------------------|

D#|----3-3-3-3-3-3-3-3---3-3-3-3-3-3-3-3-------------x-x-x-------------x-x-x----|
A#|----3-3-3-3-3-3-3-3---3-3-3-3-3-3-3-3---1-1-1-1-1-x-x-x-------------x-x-x----|
F#|----x-x-x-x-x-x-x-x---x-x-x-x-x-x-x-x---2-2-2-2-2-x-x-x---5-5-5-5-5-x-x-x----|
C#|----x-x-x-x-x-x-x-x---x-x-x-x-x-x-x-x---3-3-3-3-3-x-x-x---5-5-5-5-5-x-x-x----|
G#|----x-x-x-x-x-x-x-x---1-1-1-1-1-1-1-1---3-3-3-3-3-x-x-x---3-3-3-3-3-x-x-x----|
D#|----3-3-3-3-3-3-3-3---x-x-x-x-x-x-x-x-------------x-x-x-------------x-x-x----|

D#|----3-3-3-3-3-3-3-3---3-3-3-3-3-3-3-3----------------------------------------|
A#|----3-3-3-3-3-3-3-3---3-3-3-3-3-3-3-3---1-1-1-1-1-1-1-1---4-4-4-4-4-4-4-4----|
F#|----x-x-x-x-x-x-x-x---x-x-x-x-x-x-x-x---2-2-2-2-2-2-2-2---x-x-x-x-x-x-x-x----|
C#|----x-x-x-x-x-x-x-x---x-x-x-x-x-x-x-x---3-3-3-3-3-3-3-3---5-5-5-5-5-5-5-5----|
G#|----x-x-x-x-x-x-x-x---1-1-1-1-1-1-1-1---3-3-3-3-3-3-3-3---6-6-6-6-6-6-6-6----|
D#|----3-3-3-3-3-3-3-3---x-x-x-x-x-x-x-x----------------------------------------|

D#|----x-x-x-x-x-x-x-x---x-x-x-x-x-x-x-x---3-3-3-3-3-3-3-3-3-3-3-3---3---3---3---3----|
A#|----1-1-1-1-1-1-1-1---x-x-x-x-x-x-x-x---3-3-3-3-3-3-3-3-3-3-3-3---3---3---3---3----|
F#|----x-x-x-x-x-x-x-x---2-2-2-2-2-2-2-2---x-x-x-x-x-x-x-x-x-x-x-x---x---x---x---x----|
C#|----x-x-x-x-x-x-x-x---x-x-x-x-x-x-x-x---x-x-x-x-x-x-x-x-x-x-x-x---x---x---x---x----|
G#|----3-3-3-3-3-3-3-3---3-3-3-3-3-3-3-3---x-x-x-x-x-x-x-x-x-x-x-x---x---x---x---x----|
D#|----x-x-x-x-x-x-x-x---x-x-x-x-x-x-x-x---3-3-3-3-3-3-3-3-3-3-3-3---1---1---1---3----|


[Verse]

D#|----3-3-3-3-3-3-3-3---3-3-3-3-3-3-3-3---3-3-3-3-3-3-3-3---3-3-3-3-3-3-3-3----|
A#|----3-3-3-3-3-3-3-3---3-3-3-3-3-3-3-3---3-3-3-3-3-3-3-3---3-3-3-3-3-3-3-3----|
F#|----x-x-x-x-x-x-x-x---x-x-x-x-x-x-x-x---x-x-x-x-x-x-x-x---x-x-x-x-x-x-x-x----|
C#|----x-x-x-x-x-x-x-x---x-x-x-x-x-x-x-x---x-x-x-x-x-x-x-x---x-x-x-x-x-x-x-x----|
G#|----x-x-x-x-x-x-x-x---1-1-1-1-1-1-1-1---x-x-x-x-3-3-3-3---x-x-x-x-x-x-x-x----|
D#|----3-3-3-3-3-3-3-3---x-x-x-x-x-x-x-x---1-1-1-1-x-x-x-x---3-3-3-3-3-3-3-3----|

D#|----3-3-3-3-3-3-3-3---3-3-3-3-3-3-3-3---3-3-3-3-3-3-3-3-3-3-3-3---3---3---3----|
A#|----3-3-3-3-3-3-3-3---3-3-3-3-3-3-3-3---3-3-3-3-3-3-3-3-3-3-3-3---3---3---3----|
F#|----x-x-x-x-x-x-x-x---x-x-x-x-x-x-x-x---x-x-x-x-x-x-x-x-x-x-x-x---0---0---0----|
C#|----x-x-x-x-x-x-x-x---x-x-x-x-x-x-x-x---x-x-x-x-x-x-x-x-x-x-x-x---0---1---0----|
G#|----x-x-x-x-x-x-x-x---1-1-1-1-x-x-x-x---3-3-3-3-3-3-3-3-3-3-3-3---0---0---0----|
D#|----3-3-3-3-3-3-3-3---x-x-x-x-1-1-1-1---x-x-x-x-x-x-x-x-x-x-x-x---x---x---x----|


[Repeat Verse]


[Pre-Chorus]

[Part I]

D#|----------x-x---------x-x---------x-x-x-x----|
A#|----------x-x---------x-x---------x-x-x-x----|
F#|----3-3---x-x---5-5---x-x---------x-x-x-x----| 
C#|----3-3---x-x---5-5---x-x---5-5---x-x-x-x----|
G#|----1-1---x-x---3-3---x-x---5-5---x-x-x-x----|
D#|----------x-x---------x-x---3-3---x-x-x-x----|(x2)

D#|----------x-x---------x-x---------x-x---------x-x----------------------------------------|
A#|----------x-x---------x-x---------x-x---------x-x----------------------------------------|
F#|----3-3---x-x---5-5---x-x---------x-x---5-5---x-x---7-7-7-7-7-7-7-7---5-5-5-5-5-5-5-5----|
C#|----3-3---x-x---5-5---x-x---5-5---x-x---5-5---x-x---7-7-7-7-7-7-7-7---5-5-5-5-5-5-5-5----|
G#|----1-1---x-x---3-3---x-x---5-5---x-x---3-3---x-x---5-5-5-5-5-5-5-5---3-3-3-3-3-3-3-3----|
D#|----------x-x---------x-x---3-3---x-x---------x-x----------------------------------------|


[Part II]

D#|----3----1----5----3-----3----1----5----3-3-3-3-3----|
A#|----3----3----6----4-----3----3----6----4-4-4-4-4----|
F#|----2----3----5----3-----2----3----5----3-3-3-3-3----|
C#|-----------------------------------------------------|
G#|-----------------------------------------------------|
D#|-----------------------------------------------------|


[Chorus]

D#|----3-3-3-3-3-3-3-3---3-3-3-3-3-3-3-3----------------------------------------|
A#|----3-3-3-3-3-3-3-3---3-3-3-3-3-3-3-3---1-1-1-1-1-1-1-1----------------------|
F#|----x-x-x-x-x-x-x-x---x-x-x-x-x-x-x-x---2-2-2-2-2-2-2-2---5-5-5-5-5-5-5-5----| 
C#|----x-x-x-x-x-x-x-x---x-x-x-x-x-x-x-x---3-3-3-3-3-3-3-3---5-5-5-5-5-5-5-5----|
G#|----x-x-x-x-x-x-x-x---1-1-1-1-1-1-1-1---3-3-3-3-3-3-3-3---3-3-3-3-3-3-3-3----|
D#|----3-3-3-3-3-3-3-3---x-x-x-x-x-x-x-x----------------------------------------|(x2)

D#|----3-3-3-3-3-3-3-3---3-3-3-3-3-3-3-3----------------------------------------|
A#|----3-3-3-3-3-3-3-3---3-3-3-3-3-3-3-3---1-1-1-1-1-1-1-1---4-4-4-4-4-4-4-4----|
F#|----x-x-x-x-x-x-x-x---x-x-x-x-x-x-x-x---2-2-2-2-2-2-2-2---x-x-x-x-x-x-x-x----|
C#|----x-x-x-x-x-x-x-x---x-x-x-x-x-x-x-x---3-3-3-3-3-3-3-3---5-5-5-5-5-5-5-5----|
G#|----x-x-x-x-x-x-x-x---1-1-1-1-1-1-1-1---3-3-3-3-3-3-3-3---6-6-6-6-6-6-6-6----|
D#|----3-3-3-3-3-3-3-3---x-x-x-x-x-x-x-x----------------------------------------|

D#|----3-3-3-3-3-3-3-3--------------------------------------------|
A#|----3-3-3-3-3-3-3-3--------------------------------------------|
F#|----x-x-x-x-x-x-x-x---8-8-8-8-8-8-8-8---------------------5----|
C#|----x-x-x-x-x-x-x-x---8-8-8-8-8-8-8-8---8-8-8-8-8-8-8-8---5----|
G#|----x-x-x-x-x-x-x-x---6-6-6-6-6-6-6-6---8-8-8-8-8-8-8-8---3----|
D#|----3-3-3-3-3-3-3-3---------------------6-6-6-6-6-6-6-6--------|

D#|----3-3-3-3-3-3-3-3-3-3-3-3-----3---3---3---3----|
A#|----3-3-3-3-3-3-3-3-3-3-3-3-----3---3---3---3----|
F#|----x-x-x-x-x-x-x-x-x-x-x-x-----x---x---x---x----|
C#|----x-x-x-x-x-x-x-x-x-x-x-x-----x---x---x---x----|
G#|----x-x-x-x-x-x-x-x-x-x-x-x-----x---x---x---x----|
D#|----3-3-3-3-3-3-3-3-3-3-3-3-----1---1---1---3----|


[Verse]

D#|----3-3-3-3-3-3-3-3---3-3-3-3-3-3-3-3---3-3-3-3-3-3-3-3---3-3-3-3-3-3-3-3----|
A#|----3-3-3-3-3-3-3-3---3-3-3-3-3-3-3-3---3-3-3-3-3-3-3-3---3-3-3-3-3-3-3-3----|
F#|----x-x-x-x-x-x-x-x---x-x-x-x-x-x-x-x---x-x-x-x-x-x-x-x---x-x-x-x-x-x-x-x----|
C#|----x-x-x-x-x-x-x-x---x-x-x-x-x-x-x-x---x-x-x-x-x-x-x-x---x-x-x-x-x-x-x-x----|
G#|----x-x-x-x-x-x-x-x---1-1-1-1-1-1-1-1---x-x-x-x-3-3-3-3---x-x-x-x-x-x-x-x----|
D#|----3-3-3-3-3-3-3-3---x-x-x-x-x-x-x-x---1-1-1-1-x-x-x-x---3-3-3-3-3-3-3-3----|
PM:    * * * * * * * *   * * * * * * * *   * * * * * * * *   * * * * * * * *

D#|----3-3-3-3-3-3-3-3---3-3-3-3-3-3-3-3---3-3-3-3-3-3-3-3-3-3-3-3---------------|
A#|----3-3-3-3-3-3-3-3---3-3-3-3-3-3-3-3---3-3-3-3-3-3-3-3-3-3-3-3---------------|
F#|----x-x-x-x-x-x-x-x---x-x-x-x-x-x-x-x---x-x-x-x-x-x-x-x-x-x-x-x----------3----|
C#|----x-x-x-x-x-x-x-x---x-x-x-x-x-x-x-x---x-x-x-x-x-x-x-x-x-x-x-x------3-5------|
G#|----x-x-x-x-x-x-x-x---1-1-1-1-x-x-x-x---3-3-3-3-3-3-3-3-3-3-3-3----5----------|
D#|----3-3-3-3-3-3-3-3---x-x-x-x-1-1-1-1---x-x-x-x-x-x-x-x-x-x-x-x---------------|
PM:    * * * * * * * *


Repeat Pre-Chorus Part I


[Chorus]


D#|----3-3-3-3-3-3-3-3---3-3-3-3-3-3-3-3---3-3-3-3-3-3-3-3---3-3-3-3-3-3-3-3----|
A#|----3-3-3-3-3-3-3-3---3-3-3-3-3-3-3-3---3-3-3-3-3-3-3-3---3-3-3-3-3-3-3-3----|
F#|----x-x-x-x-x-x-x-x---x-x-x-x-x-x-x-x---x-x-x-x-x-x-x-x---x-x-x-x-x-x-x-x----| 
C#|----x-x-x-x-x-x-x-x---x-x-x-x-x-x-x-x---x-x-x-x-x-x-x-x---x-x-x-x-x-x-x-x----|
G#|----x-x-x-x-x-x-x-x---1-1-1-1-1-1-1-1---x-x-x-x-x-x-x-x---3-3-3-3-3-3-3-3----|
D#|----3-3-3-3-3-3-3-3---x-x-x-x-x-x-x-x---1-1-1-1-1-1-1-1---x-x-x-x-x-x-x-x----|(x2)

                                                    D#|----3-3-3-3-3---x-x-x----|
                                                    A#|----3-3-3-3-3---x-x-x----|
                                         2nd time   F#|----x-x-x-x-x---x-x-x----| 
                                         ends with  C#|----x-x-x-x-x---x-x-x----| 
                                                    G#|----3-3-3-3-3---x-x-x----|
                                                    D#|----x-x-x-x-x---x-x-x----|

D#|----3-3-3-3-3-3-3-3----------------------------------------------------------|
A#|----3-3-3-3-3-3-3-3---------------------1-1-1-1-1-1-1-1---4-4-4-4-4-4-4-4----|
F#|----x-x-x-x-x-x-x-x---3-3-3-3-3-3-3-3---2-2-2-2-2-2-2-2---x-x-x-x-x-x-x-x----|
C#|----x-x-x-x-x-x-x-x---3-3-3-3-3-3-3-3---3-3-3-3-3-3-3-3---5-5-5-5-5-5-5-5----|
G#|----x-x-x-x-x-x-x-x---1-1-1-1-1-1-1-1---3-3-3-3-3-3-3-3---6-6-6-6-6-6-6-6----|
D#|----3-3-3-3-3-3-3-3----------------------------------------------------------|

D#|----3-3-3-3-3-3-3-3----------------------------------------------------|
A#|----3-3-3-3-3-3-3-3----------------------------------------------------|
F#|----x-x-x-x-x-x-x-x---3-3-3-3-3-3-3-3---------------------5-5---7-7----|
C#|----x-x-x-x-x-x-x-x---3-3-3-3-3-3-3-3---3-3-3-3-3-3-3-3---5-5---7-7----|
G#|----x-x-x-x-x-x-x-x---1-1-1-1-1-1-1-1---3-3-3-3-3-3-3-3---3-3---5-5----|
D#|----3-3-3-3-3-3-3-3---------------------1-1-1-1-1-1-1-1----------------|


[Bridge]

D#|----------------------------------------3-3-3-3-3-3-3-3-3-3-3-3-3-3---3-3----|
A#|----------------------1-1-1-1-1-1-1-1---3-3-3-3-3-3-3-3-3-3-3-3-3-3---3-3----|
F#|----8-8-8-8-8-8-8-8---2-2-2-2-2-2-2-2---x-x-x-x-x-x-x-x-x-x-x-x-x-x---x-x----|
C#|----8-8-8-8-8-8-8-8---3-3-3-3-3-3-3-3---x-x-x-x-x-x-x-x-x-x-x-x-x-x---2-2----|
G#|----6-6-6-6-6-6-6-6---3-3-3-3-3-3-3-3---x-x-x-x-x-x-x-x-x-x-x-x-x-x---x-x----|
D#|----------------------------------------3-3-3-3-3-3-3-3-3-3-3-3-3-3---x-x----|

D#|----------------------------------------3-3-3-3-3-3-3-3-3-3-3-3-3-3---3-3----|
A#|----------------------1-1-1-1-1-1-1-1---3-3-3-3-3-3-3-3-3-3-3-3-3-3---3-3----|
F#|----3-3-3-3-3-3-3-3---2-2-2-2-2-2-2-2---x-x-x-x-x-x-x-x-x-x-x-x-x-x---x-x----|
C#|----3-3-3-3-3-3-3-3---3-3-3-3-3-3-3-3---x-x-x-x-x-x-x-x-x-x-x-x-x-x---2-2----|
G#|----1-1-1-1-1-1-1-1---3-3-3-3-3-3-3-3---x-x-x-x-x-x-x-x-x-x-x-x-x-x---x-x----|
D#|----------------------------------------3-3-3-3-3-3-3-3-3-3-3-3-3-3---x-x----|

D#|----------------------------------------------------------3-3-3-3-3-3-3-3----|
A#|----------------------1-1-1-1-1-1-1-1---------------------3-3-3-3-3-3-3-3----|
F#|----3-3-3-3-3-3-3-3---2-2-2-2-2-2-2-2---5-5-5-5-5-5-5-5---x-x-x-x-x-x-x-x----|
C#|----3-3-3-3-3-3-3-3---3-3-3-3-3-3-3-3---5-5-5-5-5-5-5-5---x-x-x-x-x-x-x-x----|
G#|----1-1-1-1-1-1-1-1---3-3-3-3-3-3-3-3---3-3-3-3-3-3-3-3---x-x-x-x-x-x-x-x----|
D#|----------------------------------------------------------3-3-3-3-3-3-3-3----|

D#|-------------------------------------------------------------------------|
A#|--------------------------------------1-1-1-1-1-1-1-1-1-1-1-1-1-1-1-1----|
F#|----3-3-3-3-3-3-3-3-3-3-3-3-3-3-3-3---2-2-2-2-2-2-2-2-2-2-2-2-2-2-2-2----|
C#|----3-3-3-3-3-3-3-3-3-3-3-3-3-3-3-3---3-3-3-3-3-3-3-3-3-3-3-3-3-3-3-3----|
G#|----1-1-1-1-1-1-1-1-1-1-1-1-1-1-1-1---3-3-3-3-3-3-3-3-3-3-3-3-3-3-3-3----|
D#|-------------------------------------------------------------------------|

D#|---------------------------------------|
A#|--------3-------3-------3-------1------|
F#|------0---0---0---0---0---0---0---0----| 
C#|------------1---------------3----------|
G#|--------------------1------------------|
D#|----3----------------------------------|(x3)

D#|-------------------------------------------|
A#|--------3-------3-------3-----1-1-1-1-1----|
F#|------0---0---0---0---0---0---2-2-2-2-2----|
C#|------------1-----------------3-3-3-2-2----|
G#|--------------------1---------3-3-3-3-3----|
D#|----3--------------------------------------|


[Outro]

D#|----3-3-3-3-3-3-3-3----------------------------------------------------------|
A#|----3-3-3-3-3-3-3-3---------------------1-1-1-1-1-1-1-1---4-4-4-4-4-4-4-4----|
F#|----x-x-x-x-x-x-x-x---3-3-3-3-3-3-3-3---2-2-2-2-2-2-2-2---x-x-x-x-x-x-x-x----|
C#|----x-x-x-x-x-x-x-x---3-3-3-3-3-3-3-3---3-3-3-3-3-3-3-3---5-5-5-5-5-5-5-5----|
G#|----x-x-x-x-x-x-x-x---1-1-1-1-1-1-1-1---3-3-3-3-3-3-3-3---6-6-6-6-6-6-6-6----|
D#|----3-3-3-3-3-3-3-3----------------------------------------------------------|

D#|----3-3-3-3-3-3-3-3----------------------------------------------------------|
A#|----3-3-3-3-3-3-3-3---------------------1-1-1-1-1-1-1-1----------------------|
F#|----x-x-x-x-x-x-x-x---3-3-3-3-3-3-3-3---2-2-2-2-2-2-2-2---5-5-5-5-5-5-5-5----|
C#|----x-x-x-x-x-x-x-x---3-3-3-3-3-3-3-3---3-3-3-3-3-3-3-3---5-5-5-5-5-5-5-5----|
G#|----x-x-x-x-x-x-x-x---1-1-1-1-1-1-1-1---3-3-3-3-3-3-3-3---3-3-3-3-3-3-3-3----|
D#|----3-3-3-3-3-3-3-3----------------------------------------------------------|

D#|----3-3-3-3-3-3-3-3----------------------------------------------------------|
A#|----3-3-3-3-3-3-3-3---------------------1-1-1-1-1-1-1-1---4-4-4-4-4-4-4-4----|
F#|----x-x-x-x-x-x-x-x---3-3-3-3-3-3-3-3---2-2-2-2-2-2-2-2---x-x-x-x-x-x-x-x----|
C#|----x-x-x-x-x-x-x-x---3-3-3-3-3-3-3-3---3-3-3-3-3-3-3-3---5-5-5-5-5-5-5-5----|
G#|----x-x-x-x-x-x-x-x---1-1-1-1-1-1-1-1---3-3-3-3-3-3-3-3---6-6-6-6-6-6-6-6----|
D#|----3-3-3-3-3-3-3-3----------------------------------------------------------|

D#|----3-3-3-3-3-3-3-3------------------------------------------------------|
A#|----3-3-3-3-3-3-3-3---------------------1-1-1-1-1-1-1-1------------------|
F#|----x-x-x-x-x-x-x-x---3-3-3-3-3-3-3-3---2-2-2-2-2-2-2-2---8-8---10-10----|
C#|----x-x-x-x-x-x-x-x---3-3-3-3-3-3-3-3---3-3-3-3-3-3-3-3---8-8---10-10----|
G#|----x-x-x-x-x-x-x-x---1-1-1-1-1-1-1-1---3-3-3-3-3-3-3-3---6-6----8--8----|
D#|----3-3-3-3-3-3-3-3------------------------------------------------------|

D#|----3-3-3-3-3-3-3-3----------------------------------------------------------|
A#|----3-3-3-3-3-3-3-3---------------------1-1-1-1-1-1-1-1----------------------|
F#|----x-x-x-x-x-x-x-x---3-3-3-3-3-3-3-3---2-2-2-2-2-2-2-2---5-5-5-5-5-5-5-5----|
C#|----x-x-x-x-x-x-x-x---3-3-3-3-3-3-3-3---3-3-3-3-3-3-3-3---5-5-5-5-5-5-5-5----|
G#|----x-x-x-x-x-x-x-x---1-1-1-1-1-1-1-1---3-3-3-3-3-3-3-3---3-3-3-3-3-3-3-3----|
D#|----3-3-3-3-3-3-3-3----------------------------------------------------------|

D#|----3-3-3-3-3-3-3-3-------------------------------x-x-x----------------------|
A#|----3-3-3-3-3-3-3-3---------------------1-1-1-1-1-x-x-x----------------------|
F#|----x-x-x-x-x-x-x-x---3-3-3-3-3-3-3-3---2-2-2-2-2-x-x-x---5-5-5-5-5----------|
C#|----x-x-x-x-x-x-x-x---3-3-3-3-3-3-3-3---3-3-3-3-3-x-x-x---5-5-5-5-5----------|
G#|----x-x-x-x-x-x-x-x---1-1-1-1-1-1-1-1---3-3-3-3-3-x-x-x---3-3-3-3-3----------|
D#|----3-3-3-3-3-3-3-3-------------------------------x-x-x----------------------|




That’s it! Hope you guys enjoy it!


PS: I saw different videos of Tim performing this song, and he always
    uses different variations of the chorus.
    Sometimes he uses these G-Chord variation (only switching his
    indexfinger) and sometimes he uses powerchords.
    You can find both variations in my tab but it doesn't really
    matter at which chorus you use which variation.
    It's pretty much the same.
    This particular tab refers to his performance at Chom 977 Radio (link above)



************************************

| x   Dead note
| PM  Palm mute

************************************
Suggest correction
comments
print report bad tab
6 comments total. Showing first comments.
+1 reply
MyLifeForPunk 20 Aug 12, 2014 11:09 AM

Hey Yannick, this is Joe from Youtube. Thanks for the tab. It is very accurate with clean formatting and easy to understand. Rock On!

0 reply
yannicktross1 100 Aug 12, 2014 11:13 AM, edited at 06:59 pm

Thanks alot! Glad to hear that I've done something right with my first tab!

0 reply
Eeeeoooh 10 Oct 29, 2014 04:39 PM

Hi, im kind of new to play guitar but i feel like this song is not impossible for me to learn. So when i tune the guitar and put on the capo i cant get it to sound right. Is there a specific way to play it?
I would just like to get some tips on how to make it sound right.
Thanks

guest
You may want to rate the tab now too:
select rating
Wanna post a correction for this tab? Suggest correction