Oops, an error
Loading. Please wait.
We have an official Injection tab made by UG professional guitarists. Check out the tab »
×
21,586 views 18 this week
1 commentread comment
1 2 3 4 5
x 9
add to favorites
×
Save as Personal and add changes to this tab that will be seen only by you. Learn more ›
×
You can save this tab as Personal to edit and correct it or add notes. All changes will be seen only by you. Learn more »
launch autoscroll
font size
0
reset
guitar tuner
edit
Autoscroll
slow
fast
+/-
esc
set tempo
stop
Author
Band: Rise Against
Song: Injection
Album: The Sufferer and the Witness
Tabbed by: Justin Reyes

Standard Tuning, EADG.

~ = let ring

Intro: 

G|----------------------------------------------------------------------|
D|----------------------------------------------------------------------| 
A|------------------7777777777777777-2222222222222222-----111122221111--|
E|-4444444444444444-----------------------------------2222--------------|

G|----------------------------------------------------------------------|
D|----------------------------------------------------------------------| 
A|------------------7777777777777777-2222222222222222-----11112222------|
E|-4444444444444444-----------------------------------2222--------2222--|

G|----|
D|----|
A|----|
E|-4~-|

Verse: (0:24)

G|-----------------------------------------------------------------------|
D|-----------------------------------------------------------------------| 2x
A|--------------------------------------------------------------22222222-|
E|-4444444444444444-00000000-22222222-4444444444444444-00000000----------|

G|-----------------------------------------------------------------------|
D|-----------------------------------------------------------------------|
A|--6666666666666666----------99999999-----------------------------------|
E|-------------------00000000--------------------------------------------|

Chorus: (0:46)

G|-----------------------------------------------------------------------|
D|-----------------------------------------------------------------------| 2x
A|------------------7777777777777777-2222222222222222--------------------|
E|-4444444444444444-----------------------------------2222222222222222---|

G|---------|
D|---------|
A|---------|
E|-4~---4--|
(slap the 2nd note, if you listen to the song with headphones and 
only listen to the right ear at 1:07, you'll hear it. 
Just a nice touch.)


Verse: (1:10)

G|-----------------------------------------------------------------------|
D|-----------------------------------------------------------------------| 2x
A|--------------------------------------------------------------22222222-|
E|-4444444444444444-00000000-22222222-4444444444444444-00000000----------|

G|------------------------|
D|------------------------|
A|--6-6-------------9~~~~-|
E|-------------0~~~~------|

Chorus (1:32)

G|-----------------------------------------------------------------------|
D|-----------------------------------------------------------------------|
A|------------------7777777777777777-2222222222222222--------------------|
E|-4444444444444444-----------------------------------2222222222222222---|

G|------------------------------------------------------------------------|
D|------------------------------------------------------------------------|
A|------------------7777777777777777-2222222222222222--------------1-2----|
E|-4444444444444444-----------------------------------2222222222222---2---|

Bridge: (1:51)

G|---------------------------------------------------------------|
D|---------------------------------------------------------------|
A|---------------1-2-----------------------------1-2-------------|
E|-44-44---00-0-----22-22---00-0---44-44----00-0----22-22---00-0-|

(2:09)

G|--------------------------------------------------------------------|
D|--------------------------------------------------------------------| 2x
A|--------------------------------------------------------------------|
E|-444444444444444-0000000000000000-2222222222222222-0000000000000000-|

G|---------------------------------|
D|---------------------------------|
A|--6-6-6-6-6-6-6-6---------9------|
E|------------------0-0-0-0--------|

Final Chorus: (2:31)

G|-----------------------------------------------------------------------|
D|-----------------------------------------------------------------------| 3x
A|------------------7777777777777777-2222222222222222--------------------|
E|-4444444444444444-----------------------------------2222222222222222---|

G|-------------------------------------------|
D|-------------------------------------------|
A|-----------7-7777777--2-2222222------------|
E|-4-4444444----------------------2-2222222--|

(end on)
G|----|
D|----|
A|----|
E|-4~-|

            
            
Suggest correction
Creating personal tab
Creating personal tab
You can edit any tab online and save it as your Personal.

You can edit, replace or remove any tab part or add personal notes – all changes will be seen only by you.

Personal tabs can be accessed anytime from any device, even offline.
Learn more »
comments
print report bad tab
1 comment total.
0 reply
FBassman 1,012 May 14, 2008 03:47 PM

overall a decent tab but a few mistakes.
this is in eb tuning for one, the open Eb is heard before each chorus.

also the note you have labeled as a slap is a harmonic on the d string, seventh fret. you didnt catch this bec ause yoiu had it in the wrong tuning.

a few other mistakes but decent

guest
You may want to rate the tab now too:
select rating
Wanna post a correction for this tab? Suggest correction