Oops, an error
Loading. Please wait.
We have an official Injection tab made by UG professional guitarists. Check out the tab »
×
74,285 views 45 this week
11 commentsread comments
1 2 3 4 5
x 21
add to favorites
×
Save as Personal and add changes to this tab that will be seen only by you. Learn more ›
×
You can save this tab as Personal to edit and correct it or add notes. All changes will be seen only by you. Learn more »
launch autoscroll
font size
0
reset
how to read this tab
guitar tuner
edit
Autoscroll
slow
fast
+/-
esc
set tempo
stop
Author
Difficulty
intermediate
Artist : Rise Against 
Song : Injection
Album : The Sufferer & The Witness
Tuning : Drop D
Tabbed By : Aaron Kunde


[Intro]

 (lead)
e|------------------------------------------------------------------|
B|------------------------------------------------------------------|
G|-16-1616-15-1515-13-1313-11-1111--16-1616-15-1515-13-1313-11-1111-|
D|--x--x-x--x--x-x--x--x-x--x--x-x---x--x-x--x--x-x--x--x-x--x--x-x-|
A|-14-1414-13-1313-11-1111--9--9-9--14-1414-13-1313-11-1111--9--9-9-|
E|------------------------------------------------------------------|

e|----------------------------------------------------------------------|
B|----------------------------------------------------------------------|
G|-16-16-1515-1616-1818-1616-1515-1315-11111111111111111111111111111111-|
D|--x--x--x-x--x-x--x-x--x-x--x-x--x-x--x-x-x-x-x-x-x-x-x-x-x-x-x-x-x-x-|
A|-14-14-1313-1414-1616-1414-1313-1113--9-9-9-9-9-9-9-9-9-9-9-9-9-9-9-9-|
E|----------------------------------------------------------------------|(x2)

 (rhythm)
e|---------------------------------------------------------------------|x2 |---| 
B|---------------------------------------------------------------------|   |---|
G|---------------------------------------------------------------------|   |---|
D|------------------9999999999999999-4444444444444444------------------|   |---|
A|-6666666666666666-7777777777777777-2222222222222222-4444444444444444-|   |-6-|
E|-6666666666666666-----------------------------------4444444444444444-|   |-6-|
                                                                            ^end on

[Fill] 

 (lead)
e|------------|
B|----------7-|
G|------3-4---|
D|----6-------|
A|------------|
E|-6-6--------|(x4)
   . ..

[Verse]

 (lead)
e|------------|
B|----------7-|
G|------3-4---|
D|----6-------|
A|------------|
E|-6-6--------|(x16)
   . ..

 (rhythm)
e|---------------------------------------------------------------------|
B|---------------------------------------------------------------------|
G|---------------------------------------------------------------------|
D|-------------------------------------------------------------------4-|
A|-6-------------------------------6-------------------------------2-2-|
E|-6-------------------------------6-------------------------------2---|

[Pre-Chorus]

 (lead)
e|--------------------------------------------|
B|--------------------------------------------|
G|-8888888888888888-99999999-1111111111111111-|
D|-xxxxxxxxxxxxxxxx-xxxxxxxx--x-x-x-x-x-x-x-x-|
A|-6666666666666666-77777777--9-9-9-9-9-9-9-9-|
E|--------------------------------------------|

 (rhythm)
e|-----------------------------------|
B|-----------------------------------|
G|-----------------------------------|
D|-----------------------------------|
A|-1111111111111111-1111111111111111-|
E|-1111111111111111-1111111111111111-|
       ^ all are ones not elevens

[Chorus]

(lead)

e|------------------------------------------------------------------|
B|------------------------------------------------------------------|
G|-16-1616-15-1515-13-1313-11-1111--16-1616-15-1515-13-1313-11-1111-|
D|--x--x-x--x--x-x--x--x-x--x--x-x---x--x-x--x--x-x--x--x-x--x--x-x-|
A|-14-1414-13-1313-11-1111--9--9-9--14-1414-13-1313-11-1111--9--9-9-|
E|------------------------------------------------------------------|

e|----------------------------------------------------------------------|
B|----------------------------------------------------------------------|
G|-16-16-1515-1616-1818-1616-1515-1315-11111111111111111111111111111111-|
D|--x--x--x-x--x-x--x-x--x-x--x-x--x-x--x-x-x-x-x-x-x-x-x-x-x-x-x-x-x-x-|
A|-14-14-1313-1414-1616-1414-1313-1113--9-9-9-9-9-9-9-9-9-9-9-9-9-9-9-9-|
E|----------------------------------------------------------------------|(x2)

(rhythm)

e|---------------------------------------------------------------------|       |---| 
B|---------------------------------------------------------------------|       |---|
G|---------------------------------------------------------------------|       |---|
D|------------------9999999999999999-4444444444444444------------------|       |---|
A|-6666666666666666-7777777777777777-2222222222222222-4444444444444444-|       |-6-|
E|-6666666666666666-----------------------------------4444444444444444-|(x2)   |-6-|
                                                                            ^end on
[Fill]

 (lead)
e|------------|
B|----------7-|
G|------3-4---|
D|----6-------|
A|------------|
E|-6-6--------|(x4)
  . ..

[Verse 2]

 (lead)
e|------------|
B|----------7-|
G|------3-4---|
D|----6-------|
A|------------|
E|-6-6--------|(x16)
  . ..

 (rhythm)
e|--------------------------------------------------------------------------------------------------|
B|--------------------------------------------------------------------------------------------------|
G|-11//13------------------9\8----------------------------------------------------------------------|
D|--x//-x------------------x\x--------------------------------------------\\\\\\\\\\\\\\\\\\\\\\\\\-|
A|--9//11------------------7\6------------------6------------------6------\\\\\\\\\\\\\\\\\\\\\\\\\-|
E|----------------------------------------------6------------------6------\\\\\\\\\\\\\\\\\\\\\\\\\-|
                                                                                 ^pick slide
[Pre-Chorus]

 (lead)
e|--------------------------------------------|
B|--------------------------------------------|
G|-8888888888888888-99999999-1111111111111111-|
D|-xxxxxxxxxxxxxxxx-xxxxxxxx--x-x-x-x-x-x-x-x-|
A|-6666666666666666-77777777--9-9-9-9-9-9-9-9-|
E|--------------------------------------------|

 (rhythm)
e|--------------------|
B|--------------------|
G|--------------------|
D|--------------------|
A|-1-11------1--------|
E|-1-11------1--------|
            ^ring out

[Chorus]

 (lead)
e|------------------------------------------------------------------|
B|------------------------------------------------------------------|
G|-16-1616-15-1515-13-1313-11-1111--16-1616-15-1515-13-1313-11-1111-|
D|--x--x-x--x--x-x--x--x-x--x--x-x---x--x-x--x--x-x--x--x-x--x--x-x-|
A|-14-1414-13-1313-11-1111--9--9-9--14-1414-13-1313-11-1111--9--9-9-|
E|------------------------------------------------------------------|

e|----------------------------------------------------------------------|
B|----------------------------------------------------------------------|
G|-16-16-1515-1616-1818-1616-1515-1315-11111111111111111111111111111111-|
D|--x--x--x-x--x-x--x-x--x-x--x-x--x-x--x-x-x-x-x-x-x-x-x-x-x-x-x-x-x-x-|
A|-14-14-1313-1414-1616-1414-1313-1113--9-9-9-9-9-9-9-9-9-9-9-9-9-9-9-9-|
E|----------------------------------------------------------------------|(x2)

 (rhythm)
e|---------------------------------------------------------------------|
B|---------------------------------------------------------------------|   
G|---------------------------------------------------------------------|   
D|------------------9999999999999999-4444444444444444------------------|   
A|-6666666666666666-7777777777777777-2222222222222222-4444444444444444-|   
E|-6666666666666666-----------------------------------4444444444444444-|(x2)

[Interlude]

 (both guitars)
e|--------------------------------------------|
B|--------------------------------------------|
G|---------------------3/4--------------------|
D|---------------------x/x--------------------|
A|-666--666---222--222-1/2-444--444---222-222-|
E|-666--666---222--222-----444--444---222-222-|(x2)
                                                
 2nd part of Interlude ( rhythm )
e|---------------------------------------------------------------------|
B|---------------------------------------------------------------------|
G|---------------------------------------------------------------------|
D|---------------------------------------------------------------------|
A|-6666666666666666-2222222222222222-4444444444444444-2222222222222222-|
E|-6666666666666666-2222222222222222-4444444444444444-2222222222222222-|(x2)
  ................ ................ ................ ................  
( lead )
|--------------------------------------------------------------------------------------|  
|--------------------------------------------------------------------------------------|  
|-13131313131313131313131313131313-9999999999999999-8888888888888888-66666666666666666-|
|--x-x-x-x-x-x-x-x-x-x-x-x-x-x-x-x-xxxxxxxxxxxxxxxx-xxxxxxxxxxxxxxxx-xxxxxxxxxxxxxxxxx-|
|-11111111111111111111111111111111-7777777777777777-6666666666666666-44444444444444444-|
|--------------------------------------------------------------------------------------|   

[Pre-Chorus]

 (lead)
e|--------------------------------------------|
B|--------------------------------------------|
G|-8888888888888888-99999999-1111111111111111-|
D|-xxxxxxxxxxxxxxxx-xxxxxxxx--x-x-x-x-x-x-x-x-|
A|-6666666666666666-77777777--9-9-9-9-9-9-9-9-|
E|--------------------------------------------|

 (rhythm)
e|-----------------------------------|
B|-----------------------------------|
G|-----------------------------------|
D|-----------------------------------|
A|-1111111111111111-1111111111111111-|
E|-1111111111111111-1111111111111111-|
       ^ all are ones not elevens

 [Chorus]
 (lead)
e|------------------------------------------------------------------|
B|------------------------------------------------------------------|
G|-16-1616-15-1515-13-1313-11-1111--16-1616-15-1515-13-1313-11-1111-|
D|--x--x-x--x--x-x--x--x-x--x--x-x---x--x-x--x--x-x--x--x-x--x--x-x-|
A|-14-1414-13-1313-11-1111--9--9-9--14-1414-13-1313-11-1111--9--9-9-|
E|------------------------------------------------------------------|

e|----------------------------------------------------------------------|
B|----------------------------------------------------------------------|
G|-16-16-1515-1616-1818-1616-1515-1315-11111111111111111111111111111111-|
D|--x--x--x-x--x-x--x-x--x-x--x-x--x-x--x-x-x-x-x-x-x-x-x-x-x-x-x-x-x-x-|
A|-14-14-1313-1414-1616-1414-1313-1113--9-9-9-9-9-9-9-9-9-9-9-9-9-9-9-9-|
E|----------------------------------------------------------------------|(x2)


(rhythm)

e|---------------------------------------------------------------------|
B|---------------------------------------------------------------------|   
G|---------------------------------------------------------------------|   
D|------------------9999999999999999-4444444444444444------------------|   
A|-6666666666666666-7777777777777777-2222222222222222-4444444444444444-|   
E|-6666666666666666-----------------------------------4444444444444444-|(x2)

[End Chorus]

 (lead)
e|-----------------------------------------------------------------|
B|-----------------------------------------------------------------|
G|-16--16--16--16--16--16--16--16--16--16--16--16--16--16--16--16--|
D|--x---x---x---x---x---x---x---x---x---x---x---x---x---x---x---x--|
A|-14--14--14--14--14--14--14--14--14--14--14--14--14--14--14--14--|
E|-----------------------------------------------------------------|(x2)

 (rhythm)
e|---------------------------------------------------------------------|x2 |---| 
B|---------------------------------------------------------------------|   |---|
G|---------------------------------------------------------------------|   |---|
D|------------------9999999999999999-4444444444444444------------------|   |---|
A|-6666666666666666-7777777777777777-2222222222222222-4444444444444444-|   |-6-|
E|-6666666666666666-----------------------------------4444444444444444-|   |-6-|
                                                                            ^end on



************************************

| x  Dead note
| .  palm mute
| /  Slide up
| \  Slide down

************************************

            
            
Suggest correction
Creating personal tab
Creating personal tab
You can edit any tab online and save it as your Personal.

You can edit, replace or remove any tab part or add personal notes – all changes will be seen only by you.

Personal tabs can be accessed anytime from any device, even offline.
Learn more »
comments
print report bad tab
11 comments total. Showing first comments.
-1 reply
SteveHouse 40 May 29, 2006 02:50 PM

This must be in Eb-standard, not drop-D.

0 reply
aznskater4life 30 Jul 10, 2006 07:31 AM

Nice tabs dude for The Sufferer and The Witness.

0 reply
Razorhead 212 Jul 31, 2006 05:06 AM

good tab. thumbs up.

guest
You may want to rate the tab now too:
select rating
Wanna post a correction for this tab? Suggest correction