Oops, an error
Loading. Please wait.

Join The Ranks Bass Tab

version 1
version 1

Whole song

Interactive

529 views 1 this week
1 commentread comment
1 2 3 4 5
please rate
add to favorites
launch autoscroll
font size
0
reset
guitar tuner
Autoscroll
slow
fast
+/-
esc
set tempo
stop
Help us to improve Ultimate-Guitar.com Take our survey!
×
Author
Difficulty
Tuning
intermediate
D# G# C# F# A# D#
Song: Join the Ranks
Band: Rise Against
Album: The Unraveling
Bassist: Joe Principe

Half Step Down (Eb standard

VERSE

Gb|-----------------|-----------------|-----------------|-----------------|
Db|-----------------|---------5-55-50-|-----------------|-----------5-----|
Ab|-7-77-75-7-77-75-|-7-77-75---------|-3-33-33-5-55-55-|-7-77-75-7---7-5-|
Eb|-----------------|-----------------|-----------------|-----------------|
   1 + 2 + 3 + 4 +   1 + 2 + 3 + 4 +   1 + 2 + 3 + 4 +   1 + 2 + 3 + 4 +

Gb|-----------------|-----------------|-----------------|-----------------||
Db|-----------------|---------5-55-50-|-----------------|-----------------||
Ab|-7-77-75-7-77-75-|-7-77-75---------|-3-33-33-5-55-55-|-7-77-77-7-7-5---||
Eb|-----------------|-----------------|-----------------|---------------3-||
   1 + 2 + 3 + 4 +   1 + 2 + 3 + 4 +   1 + 2 + 3 + 4 +   1 + 2 + 3 + 4 +


CHORUS

Gb|-----------------|-----------------|-----------------|-----------------|
Db|-----------------|-----------------|-----------------|-----------------|
Ab|-3-33-33--33-3---|-7-77-75--55-5---|-3-33-33--33-3---|-0-00-02-2-2-2---|
Eb|---------------3-|---------------3-|---------------3-|---------------3-|
   1 + 2 + 3 + 4 +   1 + 2 + 3 + 4 +   1 + 2 + 3 + 4 +   1 + 2 + 3 + 4 +

Gb|-----------------|-----------------|-----------------|-----------------||
Db|-----------------|-----------------|-----------------|-----------------||
Ab|-3-33-33--33-3---|-7-77-75--55-5-5-|-----------------|-----------------||
Eb|---------------3-|-----------------|-3-33-33--33-3///|/7-77-77--77-7-7-||
   1 + 2 + 3 + 4 +   1 + 2 + 3 + 4 +   1 + 2 + 3 + 4 +   1 + 2 + 3 + 4 +

VERSE

Gb|-----------------|-----------------|-----------------|-----------------|
Db|-----------------|---------5-55-50-|-----------------|-----------5-----|
Ab|-7-77-75-7-77-75-|-7-77-75---------|-3-33-33-5-55-55-|-7-77-75-7---7-5-|
Eb|-----------------|-----------------|-----------------|-----------------|
   1 + 2 + 3 + 4 +   1 + 2 + 3 + 4 +   1 + 2 + 3 + 4 +   1 + 2 + 3 + 4 +

Gb|-----------------|-----------------|-----------------|-----------------||
Db|-----------------|---------5-55-50-|-----------------|-----------------||
Ab|-7-77-75-7-77-75-|-7-77-75---------|-3-33-33-5-55-55-|-7-77-77-7-7-5---||
Eb|-----------------|-----------------|-----------------|---------------3-||
   1 + 2 + 3 + 4 +   1 + 2 + 3 + 4 +   1 + 2 + 3 + 4 +   1 + 2 + 3 + 4 +


CHORUS

Gb|-----------------|-----------------|-----------------|-----------------|
Db|-----------------|-----------------|-----------------|-----------------|
Ab|-3-33-33--33-3---|-7-77-75--55-5---|-3-33-33--33-3---|-0-00-02-2-2-2---|
Eb|---------------3-|---------------3-|---------------3-|---------------3-|
   1 + 2 + 3 + 4 +   1 + 2 + 3 + 4 +   1 + 2 + 3 + 4 +   1 + 2 + 3 + 4 +

Gb|-----------------|-----------------|-----------------|-----------------||
Db|-----------------|-----------------|-----------------|-----------------||
Ab|-3-33-33--33-3---|-7-77-75--55-5-5-|-----------------|-2-22-22--22-2-2-||
Eb|---------------3-|-----------------|-3-33-33--33-3-3-|-----------------||
   1 + 2 + 3 + 4 +   1 + 2 + 3 + 4 +   1 + 2 + 3 + 4 +   1 + 2 + 3 + 4 +

INTERLUDE

Gb|-----------------|-----------------|-----------------|-----------------|
Db|-2-22-22-2-22-22-|-2-22-22-2-22-20-|-5-55-50-7-77-70-|-2-22-22-2-22-20-|
Ab|-----------------|-----------------|-----------------|-----------------|
Eb|-----------------|-----------------|-----------------|-----------------|
   1 + 2 + 3 + 4 +   1 + 2 + 3 + 4 +   1 + 2 + 3 + 4 +   1 + 2 + 3 + 4 +

Gb|-----------------|-----------------|-----------------|-----------------||
Db|-2-22-22-2-22-22-|-2-22-22-2-22-20-|-5-55-50-7-77-70-|-2-22-22-2-22-2--||
Ab|-----------------|-----------------|-----------------|-----------------||
Eb|-----------------|-----------------|-----------------|---------------3-||
   1 + 2 + 3 + 4 +   1 + 2 + 3 + 4 +   1 + 2 + 3 + 4 +   1 + 2 + 3 + 4 +

CHORUS

Gb|-----------------|-----------------|-----------------|-----------------|
Db|-----------------|-----------------|-----------------|-----------------|
Ab|-3-33-33--33-3---|-7-77-75--55-5---|-3-33-33--33-3---|-0-00-02-2-2-2---|
Eb|---------------3-|---------------3-|---------------3-|---------------3-|
   1 + 2 + 3 + 4 +   1 + 2 + 3 + 4 +   1 + 2 + 3 + 4 +   1 + 2 + 3 + 4 +

Gb|-----------------|-----------------|-----------------|-----------------||
Db|-----------------|-----------------|-----------------|-----------------||
Ab|-3-33-33--33-3---|-7-77-75--55-5-5-|-----------------|-2-22-22--22-2-2-||
Eb|---------------3-|-----------------|-3-33-33--33-3-3-|-----------------||
   1 + 2 + 3 + 4 +   1 + 2 + 3 + 4 +   1 + 2 + 3 + 4 +   1 + 2 + 3 + 4 +

INTERLUDE

Gb|-----------------|-----------------||
Db|-----------------|-----------------||
Ab|-7---------------|-----------------||
Eb|-----------------|---------------3-||
   1 + 2 + 3 + 4 +   1 + 2 + 3 + 4 +  

GUITAR SOLO

Gb|-----------------|-----------------|-----------------|-----------------|
Db|-----------------|-----------------|-----------------|-----------------|
Ab|-3-33-33--33-3---|-7-77-75--55-5---|-3-33-33--33-3---|-0-00-02-2-2-2---|
Eb|---------------3-|---------------3-|---------------3-|---------------3-|
   1 + 2 + 3 + 4 +   1 + 2 + 3 + 4 +   1 + 2 + 3 + 4 +   1 + 2 + 3 + 4 +

Gb|-----------------|-----------------|-----------------|-----------------||
Db|-----------------|-----------------|-----------------|-----------------||
Ab|-3-33-33--33-3---|-7-77-75--55-5-5-|-----------------|-2-22-22--22-2-2-||
Eb|---------------3-|-----------------|-3-33-33--33-3-3-|-----------------||
   1 + 2 + 3 + 4 +   1 + 2 + 3 + 4 +   1 + 2 + 3 + 4 +   1 + 2 + 3 + 4 +

OUTRO

Gb|-----------------|-----------------||
Db|-----------------|-----------------||
Ab|-7-77-75-7-77-75-|-7-77-75-7-------||
Eb|-----------------|-----------------||
   1 + 2 + 3 + 4 +   1 + 2 + 3 + 4 +  
Suggest correction
Give kudos to tab author, rate the tab!
1 2 3 4 5
comments
print report bad tab
1 comment total.
0 reply
micah3639 77 wrote on September 19 2014, 09:49 pm

AWESOME I think this is perfect. If anything,I might change the first interlude to straight 16th's, I think it sounds cooler. Awesome work!

guest
You may want to rate the tab now too:
select rating
Please do not post tabs as comments. Select "correction" instead!