Oops, an error
Loading. Please wait.

Lanterns bass

2,008 views 3 this week
1 commentread comment
1 2 3 4 5
x 3
add to favorites
×
Save as Personal and add changes to this tab that will be seen only by you. Learn more ›
×
You can save this tab as Personal to edit and correct it or add notes. All changes will be seen only by you. Learn more »
launch autoscroll
font size
0
reset
guitar tuner
edit
Autoscroll
slow
fast
+/-
esc
set tempo
stop
0:13
F#|-----------------------------------------------------------------|
C#|-----------------------------------------------------------------|
G#|-7-------------------------------10------------------------------|
D#|-0-------------------------------8-------------------------------|

F#|-----------------------------------------------------------------|
C#|-----------------------------------------------------------------|
G#|-12------------------------------14------------------------------|
D#|-10------------------------------12------------------------------|

0:27
F#|-----------------------------------------------------------------|
C#|-----------------------------------------------------------------|
G#|-7-------------------------------10------------------------------|
D#|-0-------------------------------8-------------------------------|

F#|-----------------------------------------------------------------------------|
C#|-----------------------------------------------------------------------------|
G#|-12--------------------------------------------------------------------------|
D#|-10------------------------------12-R------------------------10-/-12-\-\-\-\-|

0:43
F#|-----------------------------------------------------------------|
C#|-----------------------------------------------------------------|
G#|-7-----2-2-------------5-5-5-2---7-----2-2-------------5-5-5-2---|
D#|---------------3-3-----------------------------3-3---------------|

F#|-----------------------------------------------------------------|
C#|-----------------------------------------------------------------|
G#|-7-----2-2-------------5-5-5-2---3-3-3-3-3-3-3-3---------5-5-5-5-|
D#|---------------3-3-------------------------------3-3-3-3---------|

0:52
F#|-----------------------------------------------------------------|
C#|-----------------------------------------------------------------|
G#|-------2-2-2-2---------5-5-5-2---------2-2-2-2---------5-5-5-2---|
D#|-0-0-0---------3-3-3-3-----------0-0-0---------3-3-3-3-----------|

F#|-----------------------------------------------------------------|
C#|-----------------------------------------------------------------|
G#|-------2-2-2-2---------5-5-5-2---3-3-3-3---------5-5-5-5-2-2-2-2-|
D#|-0-0-0---------3-3-3-3-------------------3-3-3-3-----------------|

1:01
F#|-----------------------------------------------------------------|
C#|-----5-----5-----5-------9-7-5-7-----5-----5-----5-------9-7-5-7-|
G#|-7-7---7-7---7-7---7-7-7---------7-7---7-7---7-7---7-7-7---------|
D#|-----------------------------------------------------------------|
    1 2 3 4 1 2 3 4 1 2 3 4 1 2 3 4 1 2 3 4 1 2 3 4 1 2 3 4 1 2 3 4

F#|-----------------------------------------------------------------|
C#|-----5-----5-----5-------9-7-5-7-------------------------9-7-5-7-|
G#|-3-3---3-3---3-3---3-3-3---------5-5-5-5-5-5-5-5-5-5-5-5---------|
D#|-----------------------------------------------------------------|
    1 2 3 4 1 2 3 4 1 2 3 4 1 2 3 4 1 2 3 4 1 2 3 4 1 2 3 4 1 2 3 4

F#|-----------------------------------------------------------------|
C#|-----5-----5-----5-------9-7-5-7-----5-----5-----5-------9-7-5-7-|
G#|-7-7---7-7---7-7---7-7-7---------7-7---7-7---7-7---7-7-7---------|
D#|-----------------------------------------------------------------|
    1 2 3 4 1 2 3 4 1 2 3 4 1 2 3 4 1 2 3 4 1 2 3 4 1 2 3 4 1 2 3 4

F#|-----------------------------------------------------------------|
C#|-----5-----5-----5-------9-7-5-7-9-9-9-9-7-7-7-7-5-5-5-5-4-4-4-4-|
G#|-3-3---3-3---3-3---3-3-3-----------------------------------------|
D#|-----------------------------------------------------------------|
    1 2 3 4 1 2 3 4 1 2 3 4 1 2 3 4 1 2 3 4 1 2 3 4 1 2 3 4 1 2 3 4

1:19
F#|-----------------------------------------------------------------|
C#|-----------------------------------------------------------------|
G#|-----------------------------------------------------------------|
D#|-0-------------------------------------------------------12-\-\--|

1:24
F#|-----------------------------------------------------------------|
C#|-----------------------------------------------------------------|
G#|-7-----2-2-------------5-5-5-2---7-----2-2-------------5-5-5-2---|
D#|---------------3-3-----------------------------3-3---------------|

F#|-----------------------------------------------------------------|
C#|-----------------------------------------------------------------|
G#|-7-----2-2-------------5-5-5-2---3-3-3-3-3-3-3-3---------5-5-5-5-|
D#|---------------3-3-------------------------------3-3-3-3---------|

F#|-----------------------------------------------------------------|
C#|-----------------------------------------------------------------|
G#|-------2-2-2-2---------5-5-5-2---------2-2-2-2---------5-5-5-2---|
D#|-0-0-0---------3-3-3-3-----------0-0-0---------3-3-3-3-----------|

F#|-----------------------------------------------------------------|
C#|-----------------------------------------------------------------|
G#|-------2-2-2-2---------5-5-5-2---3-3-3-3---------5-5-5-5-2-2-2-2-|
D#|-0-0-0---------3-3-3-3-------------------3-3-3-3-----------------|

1:43
F#|-----------------------------------------------------------------|
C#|-----5-----5-----5-------9-7-5-7-----5-----5-----5-------9-7-5-7-|
G#|-7-7---7-7---7-7---7-7-7---------7-7---7-7---7-7---7-7-7---------|
D#|-----------------------------------------------------------------|

F#|-----------------------------------------------------------------|
C#|-----5-----5-----5-------9-7-5-7-------------------------9-7-5-7-|
G#|-3-3---3-3---3-3---3-3-3---------5-5-5-5-5-5-5-5-5-5-5-5---------|
D#|-----------------------------------------------------------------|

F#|-----------------------------------------------------------------|
C#|-----5-----5-----5-------9-7-5-7-----5-----5-----5-------9-7-5-7-|
G#|-7-7---7-7---7-7---7-7-7---------7-7---7-7---7-7---7-7-7---------|
D#|-----------------------------------------------------------------|

F#|-----------------------------------------------------------------|
C#|-----5-----5-----5-------9-7-5-7-9-9-9-9-7-7-7-7-5-5-5-5-4-4-4-4-|
G#|-3-3---3-3---3-3---3-3-3-----------------------------------------|
D#|-----------------------------------------------------------------|

F#|-----------------------------------------------------------------|
C#|-----------------------------------------------------------------|
G#|-----------------------------------------------------------------|
D#|-0---------------------------------------------------------------|

F#|-----------------------------------------------------------------|
C#|-----------------------------------------------------------------|
G#|-----------------------------------------------------------------|
D#|-(0)-------------------------------------------------------------|

2:11
F#|-----------------------------------------------------------------|
C#|-----------------------------------------------------------------|
G#|-----------------------------2-------------------------------2---|
D#|-0-------------------------------3-------------------------------|

F#|-----------------------------------------------------------------|
C#|-----------------------------------------------------------------|
G#|-0------------------------------------------------5--------------|
D#|---------------------------------3-------------------------------|

F#|-----------------------------------------------------------------|
C#|-----------------------------------------------------------------|
G#|-----------------------------2-------------------------------2---|
D#|-0-------------------------------3-------------------------------|

F#|-----------------------------------------------------------------|
C#|-----------------------------------------------------------------|
G#|-0---------------------------------------------------------------|
D#|---------------------------------3----------------2--------------|

F#|-----------------------------------------------------------------|
C#|-----------------------------------------------------------------|
G#|-----------------------------2-------------------------------2---|
D#|-0-------------------------------3-------------------------------|

F#|-----------------------------------------------------------------|
C#|-----------------------------------------------------------------|
G#|-0------------------------------------------------5--------------|
D#|---------------------------------3-------------------------------|

2:41
F#|-----------------------------------------------------------------|
C#|-----------------------------------------------------------------|
G#|-----------------------------------------------------------------|
D#|-0---------------------------------------------------------------|

2:46
F#|-----------------------------------------------------------------|
C#|-----------------------------------------------------------------|
G#|-3-----3-----3-------3---3---3---5-----5-----5---5---5---5---5---|
D#|-----------------------------------------------------------------|

F#|-----------------------------------------------------------------|
C#|-----------------------------------------------------------------|
G#|---------------------------------7-------------------------------|
D#|-0-0-0-0-0-0-0-0-0-0-0-0-0-0-0-0---0-0-0-0-0-0-0-0-0-0-0-0-0-0-0-|

2:46
F#|-------------------------------------------------7-7-7-7-7-7-7-7-|
C#|-----------------------------------------------------------------|
G#|-3-3-3-3-3-3-3-3-3-3-3-3-3-3-3-3-5-5-5-5-5-5-5-5-----------------|
D#|-----------------------------------------------------------------|

3:00
F#|-----------------------------------------------------------------|
C#|-----5-----5-----5-------9-7-5-7-----5-----5-----5-------9-7-5-7-|
G#|-7-7---7-7---7-7---7-7-7---------7-7---7-7---7-7---7-7-7---------|
D#|-----------------------------------------------------------------|

F#|-----------------------------------------------------------------|
C#|-----5-----5-----5-------9-7-5-7-------------------------9-7-5-7-|
G#|-3-3---3-3---3-3---3-3-3---------5-5-5-5-5-5-5-5-5-5-5-5---------|
D#|-----------------------------------------------------------------|

F#|-----------------------------------------------------------------|
C#|-----5-----5-----5-------9-7-5-7-----5-----5-----5-------9-7-5-7-|
G#|-7-7---7-7---7-7---7-7-7---------7-7---7-7---7-7---7-7-7---------|
D#|-----------------------------------------------------------------|

F#|-----------------------------------------------------------------|
C#|-----5-----5-----5-------9-7-5-7-9-9-9-9-7-7-7-7-5-5-5-5-4-4-4-4-|
G#|-3-3---3-3---3-3---3-3-3-----------------------------------------|
D#|-----------------------------------------------------------------|

3:19
F#|-----------------------------------------------------------------|
C#|-----------------------------------------------------------------|
G#|-7-7-7-7-7-7-5-5-2-2-0-0-----5-5-7-7-7-7-7-7-5-5-2-2-0-0-----5-5-|
D#|-------------------------3-3-----------------------------3-3-----|

F#|-----------------------------------------------------------------|
C#|-----------------------------------------------------------------|
G#|-3-3-3-3-3-3-2-2-0-0---------2-2-5-5-5-5-5-5-5-5-5-5-5-5-5-5-5-5-|
D#|---------------------3-3-2-2-------------------------------------|

3:29
F#|-9-9-9-7-7-7----------------------9-9-9-7-7-7-------------12-12-11-11-|
C#|-------------9-9-9-9------7-7-9-9-------------9-9-9-9-----------------|
G#|----------------------7-7-----------------------------7-7-------------|
D#|----------------------------------------------------------------------|

F#|-------------------------------------------------------------------------|
C#|-10-10-10-10-9-9-9-9-7-7-7-7-5-5-5-5-9-9-9-9-7-7-7-7-5-5-5-5-4-4-4-4-----|
G#|-------------------------------------------------------------------------|
D#|---------------------------------------------------------------------0---|
Tabbed by Dave Vucko

            
            
Suggest correction
Creating personal tab
Creating personal tab
You can edit any tab online and save it as your Personal.

You can edit, replace or remove any tab part or add personal notes – all changes will be seen only by you.

Personal tabs can be accessed anytime from any device, even offline.
Learn more »
Give kudos to tab author, rate the tab!
1 2 3 4 5
comments
print report bad tab
1 comment total.
+1 reply
fade2blk89 10 Sep 29, 2013 05:21 PM

great tab!

guest
You may want to rate the tab now too:
select rating
Wanna post a correction for this tab? Suggest correction