Oops, an error
Loading. Please wait.
We have an official Like The Angel tab made by UG professional guitarists. Check out the tab »
×
1,441 views 3 this week
2 commentsread comments
1 2 3 4 5
x 3
add to favorites
×
Save as Personal and add changes to this tab that will be seen only by you. Learn more ›
×
You can save this tab as Personal to edit and correct it or add notes. All changes will be seen only by you. Learn more »
launch autoscroll
font size
0
reset
how to read this tab
guitar tuner
edit
Autoscroll
slow
fast
+/-
esc
set tempo
stop
Author
Tabbed by:Just a Buzz!
Email:sideagly@yahoo.com

Tuning:standard

I decided to tab this song over again because most of the tabs I found were either 
missing parts or had the wrong chords in it. This is my first tab and I believe it 
is 100 % correct!



Verse    Guitar 1 and 2                        
e|----------------------------------------------------------------------------|
B|----------------------------------------------------------------------------|
G|-3-333333----------6-666666----------6-666666--------------3-33333333333333-]
D|-3-333333-6-666666-6-666666-4-444444-6-666666---6-666666---3-33333333333333-|
A|-1-111111-6-666666-4-444444-4-444444-4-444444---6-666666---1-11111111111111-|
E|----------4-444444----------2-222222------------4-444444--------------------|
     ......   ......   ......   ......   ......     ......     ............  
e|------------------------------------------------------------------------|
B|------------------------------------------------------------------------|
G|-3-333333----------6-666666----------6-666666----------3-33333333333333-|
D|-3-333333-6-666666-6-666666-4-444444-6-666666-6-666666-3-33333333333333-|
A|-1-111111-6-666666-4-444444-4-444444-4-444444-6-666666-1-11111111111111-|
E|----------4-444444----------2-222222----------4-444444------------------|
     ......   ......   ......   ......   ......   ......   

Chorus    guitar 1 and 2
e|---------------------------------------------------------|
B|---------------------------------------------------------|
G|---------------------------------------------------------|
D|--44444444-66666666-888888-666-44444444-66666666-88888888|
A|--44444444-66666666-888888-666-44444444-66666666-88888888|
E|--22222222-44444444-666666-444-22222222-44444444-66666666|

e|---------------------------------------------------------|
B|---------------------------------------------------------|
G|---------------------------------------------------------|
D|-44444444-66666666-88888888-1010-11111111--6666-88888888-|
A|-44444444-66666666-88888888-1010-11111111--6666-88888888-|
E|-22222222-44444444-66666666-8888-99999999--4444-66666666-|


Verse 2
                Guitar 1 and 2
e|-----------------------------------------------------------------------------|
B|-----------------------------------------------------------------------------|
G|-3-333333----------6-666666----------6-666666---------------3-33333333333333-|
D|-3-333333-6-666666-6-666666-4-444444-6-666666---6-666666----3-33333333333333-|
A|-1-111111-6-666666-4-444444-4-444444-4-444444---6-666666----1-11111111111111-|
E|----------4-444444----------2-222222------------4-444444---------------------|
     ......   ......   ......   ......   ......   ......        ............ 
e|------------------------------------------------------------------------|
B|------------------------------------------------------------------------|
G|-3-333333----------6-666666----------6-666666----------3-33333333333333-|
D|-3-333333-6-666666-6-666666-4-444444-6-666666-6-666666-3-33333333333333-|
A|-1-111111-6-666666-4-444444-4-444444-4-444444-6-666666-1-11111111111111-|
E|----------4-444444----------2-222222----------4-444444------------------|
     ......   ......   ......   ......   ......   ......  

Chorus            guitar 1 and 2
e|-----------------------------------------------------------|
B|-----------------------------------------------------------|
G|-----------------------------------------------------------|
D|--44444444-66666666-888888-666-44444444-66666666-88888888-|
A|--44444444-66666666-888888-666-44444444-66666666-88888888-|
E|--22222222-44444444-666666-444-22222222-44444444-66666666-|
       guitar 1
e|----------------------|
B|----------------------|
G|-10-10-10-11-13-11-10-|
D|----------------------|
A|----------------------|
E|----------------------|
                        guitar 1 and 2
e|---------------------------------------------------------|
B|---------------------------------------------------------|
G|---------------------------------------------------------|
D|-44444444-66666666-88888888-1010-11111111--6666-88888888-|
A|-44444444-66666666-88888888-1010-11111111--6666-88888888-|
E|-22222222-44444444-66666666-8888-99999999--4444-66666666-|


Solo - Guitar 2 x2
E|----------------|----------------|----------------|----------------||
B|----------------|----------------|----------------|----------------||
G|----------------|----------------|-6--6--6-6-6----|----------------||
D|-8--8--8-8-8-4--|--4-4--4--4-----|-6--6--6-6-6-6--|--6-6--6--6-----||
A|-8--8--8-8-8-4--|--4-4--4--4-----|-4--4--4-4-4-6--|--6-6--6--6-----||
E|-6--6--6-6-6-2--|--2-2--2--2-----|-------------4--|--4-4--4--4-----||


E|----------------|----------------|----------------|----------------||
B|----------------|----------------|----------------|----------------||
G|----------------|----------------|----------------|----------------||
D|-8--8--8-8-8-4--|--4-4--4--4-----|-6-6-6-6-6-6-6-6|-6-6-6-6-6-6-6-6||
A|-8--8--8-8-8-4--|--4-4--4--4-----|-6-6-6-6-6-6-6-6|-6-6-6-6-6-6-6-6||
E|-6--6--6-6-6-2--|--2-2--2--2-----|-4-4-4-4-4-4-4-4|-4-4-4-4-4-4-4-4||



Solo         Guitar 1
e|-----------------|---------------------------------------------|
B|-----------------|------99-77-66-------------------------------|
G|------6-8^v-6----|------------------6--6--6-8--5--5-5--5-6-6-5-|
D|----8---------8--|-8--8----------8-----------------------------|
A|-8---------------|---------------------------------------------|
E|-----------------|---------------------------------------------|

e|---------------------------------------------------------------|
B|--/11--11--11-9------------------------------------------------|
G|----------------11-10--10--10-11-11-10-------------------------|
D|---------------------------------------11--11--11-13--10--10-10|
A|---------------------------------------------------------------|
E|---------------------------------------------------------------|

e|---------------|
B|---------------|
G|---------------|
D|--10-11-13-11--|
A|---------------|
E|---------------|

e|---------------|-------------8-9-11--11--11-9-8-6-|
B|---------------|-9--9-9--7-9----------------------|
G|-------6-8^v-6-|----------------------------------|
D|-----8---------|----------------------------------|
A|--8------------|----------------------------------|
E|---------------|----------------------------------|

e|-6--6-6-8-8-6-------------|-----------------|---------------|
B|--------------6--6--6-7-6-|-------------6-7-|--10-12-13-----|
G|--------------------------|-6--6-6--6-8-----|--14-16-17-----|
D|--------------------------|-----------------|---------------|
A|--------------------------|-----------------|---------------|
E|--------------------------|-----------------|---------------|
                                               

 To be played right after the 
 the bass plays once by itself
         Guitar 1
e|----------------------|
B|----------------------|
G|----------------------|
D|----------------------|
A|-4~-6~-8~-9~-8~-6~-8~-|
E|-6~-4~-9~-9~-9~-8~-6~-|

Chorus
  *Scratch strings before beginning the chorus*
         Guitar 1 and 2
e|--------------------------------------------------------|
B|--------------------------------------------------------|
G|--------------------------------------------------------|
D|--44444444-66666666-8888-666-44444444-66666666-88888888-|
A|--44444444-66666666-8888-666-44444444-66666666-88888888-|
E|--22222222-44444444-6666-444-22222222-44444444-66666666-|
       Guitar 1
e|----------------------|
B|----------------------|
G|-10-10-10-11-13-11-10-|
D|----------------------|
A|----------------------|
E|----------------------|
                     Guitar 1 and 2
e|-----------------------------------------------------------|
B|-----------------------------------------------------------|
G|-----------------------------------------------------------|
D|-44444444-66666666-88888888-1010-11111111--6666-8888888888-|
A|-44444444-66666666-88888888-1010-11111111--6666-8888888888-|
E|-22222222-44444444-66666666-8888-99999999--4444-6666666666-]


| /  slide up
| \  slide down
| h  hammer-on
| p  pull-off
| ~  vibrato
| +  harmonic
| x  Mute note
===============================================================================

            
            
Suggest correction
Creating personal tab
Creating personal tab
You can edit any tab online and save it as your Personal.

You can edit, replace or remove any tab part or add personal notes – all changes will be seen only by you.

Personal tabs can be accessed anytime from any device, even offline.
Learn more »
Give kudos to tab author, rate the tab!
1 2 3 4 5
comments
print report bad tab
2 comments total.
0 reply
ssjEasterBunny 251 Jul 01, 2009 10:38 AM

I'm not sure why you just posted this tab. It's the same as at least two others on here (version 4 and I think version 1 or 2), which means you either copied or didn't bother to check.

On your comment that most of the tabs "had the wrong chords," I'm sorry to tell you that those were the ones you duplicated. See version 3 (and others, but 3 I know for sure) for the most correct tab.

I will say, the song is much better when played in half-step down tuning. I don't know if Rise Against was using this tuning yet when they put out Revolutions Per Minute, but using this tuning lets you use full acoustic chords for the chorus (and I guess for your entire tab), plus the verse is a bit easier. That's how I play it anyway.

0 reply
Just a Buzz! 51 Jul 17, 2009 11:45 AM

Yeah for your information most of the tabs had some incorrect chords in them. So, yeah i did take most of what the people tabbed out, but deleting the wrong chords and adding the right ones. So, this is more of a correction tab than a whole brand new one. Also, no it doesn't sound better tuned a half step down because for someone like you who wants everything a 100% correct would play it the way it was written, which is standard. Listen to the recording its standard, not a half step down. And if you say the verse is a bit easier than that's a load of crap, because i tabbed it the easiest way possible.

guest
You may want to rate the tab now too:
select rating
Wanna post a correction for this tab? Suggest correction