Oops, an error
Loading. Please wait.

Long Forgotten Sons Bass Tab

version 4
version 4

Whole song

Interactive

886 views 3 this week
no commentswrite comment
1 2 3 4 5
please rate
add to favorites
launch autoscroll
font size
0
reset
guitar tuner
Tab Pro tools
  • play this tab
  • loop segment
  • change instrument
  • show fretboard
  • metronome
Autoscroll
slow
fast
+/-
esc
set tempo
stop
Contributor
-------------------------------------------------------------------------------
	              LONG FORGOTTEN SONS - Rise Against
-------------------------------------------------------------------------------

Tabbed By : English96
e-mail: English_828@hotmail.com

Tuning:standard


X6 (intro/chorus)
G |-------------------------------------------------------------------------|
D |----------2222----44444444-2222-1111-------------------------------------|
A |--44444444----0000-------------------------------------------------------|
E |-------------------------------------------------------------------------|

(Verse)

X8
G |-------------------------------------------------------------------------|
D |-----2-------------------------------------------------------------------|
A |--44--4------------------------------------------------------------------|
E |-------------------------------------------------------------------------|

G |-------------------------------------------------------------------------|
D |--4------4--------------------2------2------2------2---------------------|
A |----222---222-0000---------44--4--44--4--44--4--44--4--------------------|
E |------------------4444---------------------------------------------------|

 X7
G |-------------------------------------------------------------------------|
D |-----2-------------------------------------------------------------------|
A |--44--4------------------------------------------------------------------|
E |-------------------------------------------------------------------------|

G |--------1-----1----------------------------------------------------------|
D |------2--4-2---2---------------------------------------------------------|
A |--44---------------------------------------------------------------------|
E |-------------------------------------------------------------------------|

G |-------------------------------------------------------------------------|
D |--4------4---------------------------------------------------------------|
A |----222---222-0000-------------------------------------------------------|
E |------------------4444---------------------------------------------------|

(pre-chorus)
G |-------------------------------------------------------------------------|
D |--------------------------4444-22-11-------------------------------------|
A |--000000000000---22222222------------------------------------------------|
E |--------------000--------------------------------------------------------|

X4 (chorus)
G |------------------------------------------------------------------------|
D |----------2222----44444444-2222-1111------------------------------------|
A |--44444444----0000------------------------------------------------------|
E |------------------------------------------------------------------------|

(repeat verse and pre- chorus)

X4 (chorus)
G |-------------------------------------------------------------------------|
D |----------2222----44444444-2222-1111-------------------------------------|
A |--44444444----0000-------------------------------------------------------|
E |-------------------------------------------------------------------------|

Verse 3
X8
G |----------222-111--------------------------------------------------------|
D |-----------------22-----------111-222-44---------------------------------|
A |--00000000------------22222222-------------------------------------------|
E |-------------------------------------------------------------------------|

 X6 (chorus)
G |-------------------------------------------------------------------------|
D |----------2222----44444444-2222-1111-------------------------------------|
A |--44444444----0000-------------------------------------------------------|
E |-------------------------------------------------------------------------|

End on C# and hold
G |-------------------------------------------------------------------------|
D |-------------------------------------------------------------------------|
A |--4~~~-------------------------------------------------------------------|
E |-------------------------------------------------------------------------|

Couldnt b botherd 2 do much so u can work out the timing and amount the riff are played.

THE END


| /  slide up
| \  slide down
| h  hammer-on
| p  pull-off
| ~  vibrato
| +  harmonic
| x  Mute note
===============================================================================
comments
We did not receive enough feedback on this tab! Please rate:
print report bad tab
1 2 3 4 5
I want to post or [tab]
guest
You may want to rate the tab now too:
select rating
Please do not post tabs as comments. Select "correction" instead!