Oops, an error
Loading. Please wait.

Make It Stop Septembers Children Bass Tab

version 1
version 1

Whole song

Interactive

17,033 views 36 this week
5 commentsread comments
1 2 3 4 5
accurate
x 12
add to favorites
launch autoscroll
font size
0
reset
guitar tuner
Tab Pro tools
  • play this tab
  • loop segment
  • change instrument
  • show fretboard
  • metronome
Autoscroll
slow
fast
+/-
esc
set tempo
stop
Contributor
Difficulty
Tuning
novice
D A D G B E
Intro- 0:12
G|-------------------------------------------------------------------------|
D|-------------------------------------------------------------------------|X2
A|-2-2-2-2-2-2-2-2-5-5-5-5-5-5-5-5-0-0-0-0-0-0-0-0-7-7-7-7-7-7-7-7---------|
D|-------------------------------------------------------------------------|

Verse
G|-------------------------------------------------------------------------|
D|-------------------------------------------------------------------------|X2
A|-2-2-2-2-2-2-2-2-5-5-5-5-5-5-5-5-0-0-0-0-0-0-0-0-7-7-7-7-7-7-7-7---------|
D|-------------------------------------------------------------------------|

G|-------------------------------------------------------------------------|
D|-------------------------------------------------------------------------|
A|-2-2-2-2-2-2-2-2-5-5-5-5-5-5-5-5-0-0-0-0-0-0-0-0-7-7-7-7-7-7p5h7---------|
D|-------------------------------------------------------------------------|

G|-------------------------------------------------------------------------|
D|-------------------------------------------------------------------------|
A|-2-2-2-2-2-2-2-2-5-5-5-5-5-5-5-5-0-0-0-0-0-0-0-0-7-7-7-7-7-7-7-7---------|
D|-------------------------------------------------------------------------|

Pre Chorus
G|-------------------------------------------------------------------------|
D|-------------------------------------------------------------------------|
A|-------------------------------------------------------------------------|
D|-3x-3x-3x-3x-5x-5x-5x-5x-3x-3x-3x-3x-5-5-7-7-3-3-3-3-5-5-5-5x------------|


Chorus
G|-------------------------------------------------------------------------|
D|-------------------------------------------------------------------------|
A|-2-2-2-2-2-2-2-2-5-5-5-5-5-5-5-5-0-0-0-0-0-0-0-0-7-7-7-7-7-7-7-7---------|
D|-------------------------------------------------------------------------|

G|-------------------------------------------------------------------------|
D|-------------------------------------------------------------------------|
A|-2-2-2-2-2-2-2-2-5-5-5-5-5-5-5-5-0-0-0-0-0-0x-7-7-7-7-7-7x---------------|
D|-------------------------------------------------------------------------|

Post Chorus
G|-------------------------------------------------------------------------|
D|-------------------------------------------------------------------------|X2
A|-0-0-0-0-0-0-0-0-5-5-5-5-5-5-5-5-0-0-0-0-0-0-0-0-7-7-7-7-7-7-7-7---------|
D|-------------------------------------------------------------------------|


Verse
G|-------------------------------------------------------------------------|
D|-------------------------------------------------------------------------|X2
A|-2-2-2-2-2-2-2-2-5-5-5-5-5-5-5-5-0-0-0-0-0-0-0-0-7-7-7-7-7-7-7-7---------|
D|-------------------------------------------------------------------------|

G|-------------------------------------------------------------------------|
D|-------------------------------------------------------------------------|
A|-2-2-2-2-2-2-2-2-5-5-5-5-5-5-5-5-0-0-0-0-0-0-0-0-7-7-7-7-7-7p5h7---------|
D|-------------------------------------------------------------------------|

G|-------------------------------------------------------------------------|
D|-------------------------------------------------------------------------|
A|-2-2-2-2-2-2-2-2-5-5-5-5-5-5-5-5-0-0-0-0-0-0-0-0-7-7-7-7-7-7-7-7---------|
D|-------------------------------------------------------------------------|


Pre Chorus
G|-------------------------------------------------------------------------|
D|-------------------------------------------------------------------------|
A|-------------------------------------------------------------------------|
D|-3~--------5~---------3~--------5~----7~----9~----3~----5-5-5-5x---------|

Chorus
G|-------------------------------------------------------------------------|
D|-------------------------------------------------------------------------|
A|-2-2-2-2-2-2-2-2-5-5-5-5-5-5-5-5-0-0-0-0-0-0-0-0-7-7-7-7-7-7-7-7---------|
D|-------------------------------------------------------------------------|

G|-------------------------------------------------------------------------|
D|-------------------------------------------------------------------------|
A|-2-2-2-2-2-2-2-2-5-5-5-5-5-5-5-5-0-0-0-0-0-0x-7-7-7-7-7-7x---------------|
D|-------------------------------------------------------------------------|

Then This Twice
G|-------------------------------------------------------------------------|
D|-------------------------------------------------------------------------|
A|-2-2-2-2-2-2-2-2-5-5-5-5-5-5-5-5-0-0-0-0-0-0-0-0-7-7-7-7-7-7-7-7---------|
D|-------------------------------------------------------------------------|

Bridge
G|-------------------------------------------------------------------------|
D|-------------------------------------------------------------------------|X2
A|-2-2-2-2-2-2-2-2-0-0-0-0-0-0-0-0-----------------------------------------|
D|---------------------------------2-2-2-2-2-2-2-2-3-3-3-3-3-3-3-3---------|

G|-------------------------------------------------------------------------|
D|-------------------------------------------------------------------------|X2
A|-2-2-2-2-2-2-2-2-0-0-0-0-0-0-0-0-----------------------------------------|
D|---------------------------------2-2-2-2-2-2-2-2-3-3-3-3-3-3-3-3---------|

G|-------------------------------------------------------------------------|
D|-------------------------------------------------------------------------|
A|-------------------------------------------------------------------------|
D|-2-2-2-2-2-2-2-2-3-3-3-3-3-3-3-3-----------------------------------------|

Tyler Clementi... (This Can also be played like The first Verse part But I prefer 
playing it with the vibrato)
G|-------------------------------------------------------------------------|
D|-------------------------------------------------------------------------|X3
A|-2~---------5~---------0~---------7~-------------------------------------|
D|-------------------------------------------------------------------------|

Cody J. Barker                                          ...Age 13
G|-------------------------------------------------------------------------|
D|-------------------------------------------------------------------------|
A|-2~---------------5~---------------0~----------------7-7-7-7-7-7-7-7-----|
D|-------------------------------------------------------------------------|


Chorus... Play this twice through
G|-------------------------------------------------------------------------|
D|-------------------------------------------------------------------------|
A|-2-2-2-2-2-2-2-2-5-5-5-5-5-5-5-5-0-0-0-0-0-0-0-0-7-7-7-7-7-7-7-7---------|
D|-------------------------------------------------------------------------|

G|-------------------------------------------------------------------------|
D|-------------------------------------------------------------------------|
A|-2-2-2-2-2-2-2-2-5-5-5-5-5-5-5-5-0-0-0-0-0-0x-7-7-7-7-7-7x---------------|
D|-------------------------------------------------------------------------|




I did this from ear and quickly, enjoy and rate and constructive criticism welcome
comments
print report bad tab
5 comments total. Showing first comments.
+2 reply
Danusta wrote on July 4 2011, 09:54 pm

This almost perfect, only thing I can see right away is that it's played EbAbDbGb rather that DADG

0 reply
SammyBoyBe wrote on July 5 2011, 02:17 pm

Oh yeah, that sounds better

0 reply
Xero Acid wrote on August 14 2011, 09:58 pm

Great tab, everything sounds right, but I agree with Danusta, everything is played a half step lower. good job :)

I want to post or [tab]
guest
You may want to rate the tab now too:
select rating
Please do not post tabs as comments. Select "correction" instead!