Oops, an error
Loading. Please wait.

Make It Stop Septembers Children Bass Tab

version 3
version 3

Whole song

Interactive

833 views 1 this week
no commentswrite comment
1 2 3 4 5
3 more votes to show rating
add to favorites
launch autoscroll
font size
0
reset
guitar tuner
Autoscroll
slow
fast
+/-
esc
set tempo
stop
Help us to improve Ultimate-Guitar.com Take our survey!
×
Difficulty
Tuning
intermediate
D# G# C# F# A# D#
Intro- 0:12  
Gb|----------------|----------------|----------------|----------------|
Db|----------------|0-0-0-0-0-0-0-0-|----------------|2-2-2-2-2-2-2-2-|
Ab|2-2-2-2-2-2-2-2-|----------------|0-0-0-0-0-0-0-0-|----------------|X2
Eb|----------------|----------------|----------------|----------------|

Verse
Gb|----------------|----------------|----------------|----------------|
Db|----------------|0-0-0-0-0-0-0-0-|----------------|2-2-2-2-2-2-2-2-|
Ab|2-2-2-2-2-2-2-2-|----------------|0-0-0-0-0-0-0-0-|----------------|
Eb|----------------|----------------|----------------|----------------|

Gb|----------------|----------------|----------------|----------------|
Db|----------------|0-0-0-0-0-0-0-0-|----------------|2-2-2-2-2-2p0h2-|
Ab|2-2-2-2-2-2-2-2-|----------------|0-0-0-0-0-0-0-0-|----------------|
Eb|----------------|----------------|----------------|----------------|

Gb|----------------|----------------|----------------|----------------|
Db|----------------|0-0-0-0-0-0-0-0-|----------------|2-2-2-2-2-2-2-2-|
Ab|2-2-2-2-2-2-2-2-|----------------|0-0-0-0-0-0-0-0-|----------------|X2
Eb|----------------|----------------|----------------|----------------|

Pre Chorus
Gb|----------------------------------------------------------------|
Db|----------------------------------------------------------------|
Ab|----------------------------------------------------------------|
Eb|1x-1x-1x-1x-3x-3x-3x-3x-1x-1x-1x-1x-3-3-5-5-1-1-1-1-3-3-3-3x----|

Chorus
Gb|----------------|----------------|----------------|----------------|
Db|----------------|0-0-0-0-0-0-0-0-|----------------|2-2-2-2-2-2-2-2-|
Ab|2-2-2-2-2-2-2-2-|----------------|0-0-0-0-0-0-0-0-|----------------|
Eb|----------------|----------------|----------------|----------------|

Gb|----------------|----------------|----------------|----------------|
Db|----------------|0-0-0-0-0-0-0-0-|----------------|2-2-2-2-2-2-2x--|
Ab|2-2-2-2-2-2-2-2-|----------------|0-0-0-0-0-0-0x--|----------------|
Eb|----------------|----------------|----------------|----------------|

Gb|----------------|----------------|----------------|----------------|
Db|----------------|0-0-0-0-0-0-0-0-|----------------|2-2-2-2-2-2-2-2-|
Ab|2-2-2-2-2-2-2-2-|----------------|0-0-0-0-0-0-0-0-|----------------|
Eb|----------------|----------------|----------------|----------------|


Gb|----------------|----------------|
Db|----------------|----------------|
Ab|----------------|----------------|
Eb|3---------------|5---------------|

Intro
Verse
Pre Chorus
Gb|----------------------------------------------------------------|
Db|----------------------------------------------------------------|
Ab|----------------------------------------------------------------|
Eb|1~----------3~----------1~----------3~--5~--1~------3-3-3-3x----|

Chorus
Bridge
Gb|----------------|----------------|----------------|----------------|
Db|----------------|----------------|----------------|----------------|
Ab|2-2-2-2-2-2-2-2-|0-0-0-0-0-0-0-0-|----------------|----------------|X4
Eb|----------------|----------------|2-2-2-2-2-2-2-2-|3-3-3-3-3-3-3-3-|

Gb|----------------|----------------|
Db|----------------|----------------|
Ab|----------------|----------------|
Eb|2-2-2-2-2-2-2-2-|3-3-3-3-3-3-3-3-|

Gb|----------------|----------------|----------------|----------------|
Db|----------------|0~--------------|----------------|2~--------------|
Ab|2~--------------|----------------|0~--------------|----------------|X3
Eb|----------------|----------------|----------------|----------------|

Gb|----------------|----------------|----------------|----------------|
Db|----------------|0~--------------|----------------|2-2-2-2-2-2-2-2-|
Ab|2~--------------|----------------|0~--------------|----------------|
Eb|----------------|----------------|----------------|----------------|

Ending X2
Gb|----------------|----------------|----------------|----------------|
Db|----------------|0-0-0-0-0-0-0-0-|----------------|2-2-2-2-2-2-2-2-|
Ab|2-2-2-2-2-2-2-2-|----------------|0-0-0-0-0-0-0-0-|----------------|
Eb|----------------|----------------|----------------|----------------|

Gb|----------------|----------------|----------------|----------------|
Db|----------------|0-0-0-0-0-0-0-0-|----------------|2-2-2-2-2-2-2x--|
Ab|2-2-2-2-2-2-2-2-|----------------|0-0-0-0-0-0-0x--|----------------|
Eb|----------------|----------------|----------------|----------------|
Suggest correction
Give kudos to tab author, rate the tab!
1 2 3 4 5
comments
print report bad tab
guest
You may want to rate the tab now too:
select rating
Wanna post a correction for this tab? Suggest correction