Oops, an error
Loading. Please wait.

Make It Stop Septembers Children bass

version 4
version 4

Whole song

Interactive

4,451 views 1 this week
1 commentread comment
1 2 3 4 5
x 5
add to favorites
×
Save as Personal and add changes to this tab that will be seen only by you. Learn more ›
×
You can save this tab as Personal to edit and correct it or add notes. All changes will be seen only by you. Learn more »
launch autoscroll
font size
0
reset
guitar tuner
edit
Autoscroll
slow
fast
+/-
esc
set tempo
stop
Song: Make It Stop (September's Children)      
Band: Rise Against
Album: Endgame (2011)
Bassist: Joe Principe

Tuning: Half Step Down (Eb-Ab-Db-Gb, Low to High)

There isn't really an accurate tab for this, so I thought I'd tab it out.

Please scroll all the way down (just before the duration legend) to make your 
reading and learning experience much more convenient :)

              
Intro - Guitar Only for 8 Bars


Main Riff [MR]

  E  E  E  E  E  E  E  E   
--------------------------|
--------------------------|
--2--2--2--2--2--2--2--2--|
--------------------------|


  E  E  E  E  E  E  E  E   
--------------------------|
--------------------------|
--5--5--5--5--5--5--5--5--|
--------------------------|


  E  E  E  E  E  E  E  E   
--------------------------|
--------------------------|
--------------------------|
--5--5--5--5--5--5--5--5--|


  E  E  E  E  E  E  E  E   
--------------------------|
--------------------------|
--------------------------|
--0--0--0--0--0--0--0--0--|


  E  E  E  E  E  E  E  E   
--------------------------|
--------------------------|
--2--2--2--2--2--2--2--2--|
--------------------------|


  E  E  E  E  E  E  E  E   
--------------------------|
--------------------------|
--5--5--5--5--5--5--5--5--|
--------------------------|


  E  E  E  E  E  E  E  E   
--------------------------|
--------------------------|
--------------------------|
--5--5--5--5--5--5--5--5--|


  E  E  E  E  E  E  E  E   
--------------------------|
--------------------------|
--------------5--5--0--0--|
--0--0--0--0--------------|



Verse 1 [V1]


  E  E  E  E  E  E  E  E   
--------------------------|
--------------------------|
--2--2--2--2--2--2--2--2--|
--------------------------|


  E  E  E  E  E  E  E  E   
--------------------------|
--------------------------|
--5--5--5--5--5--5--5--5--|
--------------------------|


  E  E  E  E  E  E  E  E   
--------------------------|
--------------------------|
--------------------------|
--5--5--5--5--5--5--5--5--|


  E  E  E  E  E  E  E  E   
--------------------------|
--------------------------|
--------------------------|
--0--0--0--0--0--0--0--0--|


  E  E  E  E  E  E  E  E   
--------------------------|
--------------------------|
--2--2--2--2--2--2--2--2--|
--------------------------|


  E  E  E  E  E  E  E  E   
--------------------------|
--------------------------|
--5--5--5--5--5--5--5--5--|
--------------------------|


  E  E  E  E  E  E  E  E   
--------------------------|
--------------------------|
--------------------------|
--5--5--5--5--5--5--5--5--|


  E  E  E  E  E  E  E  E   
--------------------------|
--------------------------|
--------------------------|
--5--5--5--5--5--5--5--5--|


  E  E  E  E  E  E  E  E   
--------------------------|
--------------------------|
--2--2--2--2--2--2--2--2--|
--------------------------|


  E  E  E  E  E  E  E  E   
--------------------------|
--------------------------|
--5--5--5--5--5--5--5--5--|
--------------------------|


  E  E  E  E  E  E  E  E   
--------------------------|
--------------------------|
--------------------------|
--5--5--5--5--5--5--5--5--|


  E  E  E  E  E  E  E  E   
--------------------------|
--------------------------|
--------------7--5--4--5--|
--0--0--0--0--------------|


  E  E  E  E  E  E  E  E   
--------------------------|
--------------------------|
--2--2--2--2--2--2--2--2--|
--------------------------|


  E  E  E  E  E  E  E  E   
--------------------------|
--------------------------|
--5--5--5--5--5--5--5--5--|
--------------------------|


  E  E  E  E  E  E  E  E   
--------------------------|
--------------------------|
--------------------------|
--5--5--5--5--5--5--5--5--|


  E  E  E  E  E  E  E  E   
--------------------------|
--------------------------|
--------------------------|
--5--5--5--5--5--5--5--5--|


Pre-Chorus (What God would damn a heart...) [PC1]


  E  E  E  E  E  E  E  E   
--------------------------|
--------------------------|
--------------------------|
--3--3--3--3--3--3--3--3--|


  E  E  E  E  E  E  E  E   
--------------------------|
--------------------------|
--------------------------|
--5--5--5--5--5--5--5--5--|


  E  E  E  E  E  E  E  E   
--------------------------|
-----------------------0--|
--------------------------|
--0--0--0--0--0--0--0-----|


  E  E  E  E  E  E  E  E   
--------------------------|
--2--2--2--2--2--0--------|
--------------------4--2--|
--------------------------|


  E  E  E  E  E  E  E  E   
--------------------------|
--------------------------|
--------------------------|
--3--3--3--3--3--3--3--3--|


  E  E  E  E  E   E   E  E   
----------------------------|
----------------------------|
----------------------------|
--5--5--5--5--5-------------|


Chorus 1 [C1]


  E  E  E  E  E  E  E  E   
--------------------------|
--------------------------|
--2--2--2--2--2--2--2--2--|
--------------------------|


  E  E  E  E  E  E  E  E   
--------------------------|
--------------------------|
--5--5--5--5--5--5--5--5--|
--------------------------|


  E  E  E  E  E  E  E  E   
--------------------------|
--------------------------|
--------------------------|
--5--5--5--5--5--5--5--5--|


  E  E  E  E  E  E  E  E   
--------------------------|
--------------------------|
--------------------------|
--0--0--0--0--0--0--0--0--|


  E  E  E  E  E  E  E  E   
--------------------------|
--------------------------|
--2--2--2--2--2--2--2--2--|
--------------------------|


  E  E  E  E  E  E  E  E   
--------------------------|
--------------------------|
--5--5--5--5--5--5--5--5--|
--------------------------|


  E  E  E  E  E  E  E  E   
--------------------------|
--------------------------|
--------------------------|
--5--5--5--5--5-----------|


  E  E  E  E  E  E  E  E   
--------------------------|
--------------------------|
--------------------------|
--0--0--0--0--0-----------|


(Oh oh...) Post Chorus 1 [POC1]


  E  E  E  E  E  E  E  E   
--------------------------|
--------------------------|
--2--2--2--2--2--2--2--2--|
--------------------------|


  E  E  E  E  E  E  E  E   
--------------------------|
--------------------------|
--5--5--5--5--5--5--5--5--|
--------------------------|


  E  E  E  E  E  E  E  E   
--------------------------|
--------------------------|
--------------------------|
--5--5--5--5--5--5--5--5--|


  E  E  E  E  E  E  E  E   
--------------------------|
--------------------------|
--------------------------|
--0--0--0--0--0--0--0--0--|


  E  E  E  E  E  E  E  E   
--------------------------|
--------------------------|
--------------------------|
--3--3--3--3--3--3--3--3--|


  E  E  E  E  E  E  E  E   
--------------------------|
--5--5--5--5--5--4--2-----|
-----------------------5--|
--------------------------|


  E  E  E  E  E  E  E  E   
--------------------------|
--------------------------|
--------------------------|
--5--5--5--5--5--5--5--5--|


  E  E  E  E  E  E  E  E   
--------------------------|
--------------------------|
--------------------------|
--5--5--5--5--5--5--5--5--|


Interlude (Main Verse Repeat) [INT]



Verse 2 [V2]

  E  E  E  E  E  E  E  E   
--------------------------|
--------------------------|
--2--2--2--2--2--2--2--2--|
--------------------------|


  E  E  E  E  E  E  E  E   
--------------------------|
--------------------------|
--5--5--5--5--5--5--5--5--|
--------------------------|


  E  E  E  E  E  E  E  E   
--------------------------|
--------------------------|
--------------------------|
--5--5--5--5--5--5--5--5--|


  E  E  E  E  E  E  E  E   
--------------------------|
--------------------------|
--7--7--7--7--7--7--7--7--|
--------------------------|


  E  E  E  E  E  E  E  E   
--------------------------|
--------------------------|
--2--2--2--2--2--2--2--2--|
--------------------------|


  E  E  E  E  E  E  E  E   
--------------------------|
--------------------------|
--5--5--5--5--5--5--5--5--|
--------------------------|


  E  E  E  E  E  E  E  E   
--------------------------|
--------------------------|
--------------------------|
--5--5--5--5--5--5--5--5--|


  E  E  E  E  E  E  E  E   
--------------------------|
--------------------------|
--------------------------|
--5--5--5--5--5--5--5--5--|


  E  E  E  E  E  E  E  E   
--------------------------|
--------------------------|
--2--2--2--2--2--2--2--2--|
--------------------------|


  E  E  E  E  E  E  E  E   
--------------------------|
--------------------------|
--5--5--5--5--5--5--5--5--|
--------------------------|


  E  E  E  E  E  E  E  E   
--------------------------|
--------------------------|
--------------------------|
--5--5--5--5--5--5--5--5--|


  E  E  E  E  E  E  E  E   
--------------------------|
--------------------------|
--------------7--9--7--5--|
--0--0--0--0--------------|


  E  E  E  E  E  E  E  E   
--------------------------|
--------------------------|
--2--2--2--2--2--2--2--2--|
--------------------------|


  E  E  E  E  E  E  E  E   
--------------------------|
--------------------------|
--5--5--5--5--5--5--5--5--|
--------------------------|


  E  E  E  E  E  E  E  E   
--------------------------|
--------------------------|
--------------------------|
--5--5--5--5--5--5--5--5--|


  E  E  E  E  E  E  E  E   
--------------------------|
--------------------------|
--------------------------|
--5--5--5--5--0--0--0--0--|


Pre-Chorus 2 (It's always darkest....) [PC2]


  W                   W                 
-------------------|-------------------|
-------------------|-------------------|
-------------------|-------------------|
--3----------------|--5----------------|


  W                   H        Q    Q     
-------------------|---------------------|
-------------------|--2--------4----5----|
-------------------|---------------------|
--0----------------|---------------------|


  W                 
-------------------|
-------------------|
-------------------|
--3----------------|


  E  E  E  E  E  E  E  E   
--------------------------|
--------------------------|
--------------------------|
--5--5--5--5--5-----------|


Chorus 2 [C2]


  E  E  E  E  E  E  E  E   
--------------------------|
--------------------------|
--2--2--2--2--2--2--2--2--|
--------------------------|


  E  E  E  E  E  E  E  E   
--------------------------|
--------------------------|
--5--5--5--5--5--5--5--5--|
--------------------------|


  E  E  E  E  E  E  E  E   
--------------------------|
--------------------------|
--------------------------|
--5--5--5--5--5--5--5--5--|


  E  E  E  E  E  E  E  E   
--------------------------|
--------------------------|
--------------------------|
--0--0--0--0--0--0--0--0--|


  E  E  E  E  E  E  E  E   
--------------------------|
--------------------------|
--2--2--2--2--2--2--2--2--|
--------------------------|


  E  E  E  E  E  E  E  E   
--------------------------|
--------------------------|
--5--5--5--5--5--5--5--5--|
--------------------------|


  E  E  E  E  E  E  E  E   
--------------------------|
--------------------------|
--------------------------|
--5--5--5--5--5-----------|


  E  E  E  E  E  E  E  E   
--------------------------|
--------------------------|
--------------------------|
--0--0--0--0--0-----------|


Post-Chorus 3 [POC 3]


  E  E  E  E  E  E  E  E   
--------------------------|
--------------------------|
--2--2--2--2--2--2--2--2--|
--------------------------|


  E  E  E  E  E  E  E  E   
--------------------------|
--------------------------|
--5--5--5--5--5--5--5--5--|
--------------------------|


  E  E  E  E  E  E  E  E   
--------------------------|
--------------------------|
--------------------------|
--5--5--5--5--5--5--5--5--|


  E  E  E  E  E  E  E  E   
--------------------------|
--------------------------|
--------------------------|
--0--0--0--0--0--2--3--5--|


  E  E  E  E  E  E  E  E   
--------------------------|
--------------------------|
--------------------------|
--3--3--3--3--3--3--3--3--|


  E  E  E  E  E  E  E  E   
--------------------------|
--5--5--5--5--7--5--4--5--|
--------------------------|
--------------------------|


  E  E  E  E  E  E  E  E   
--------------------------|
--------------------------|
--------------------------|
--5--5--5--5--5--5--5--5--|


  E  E  E  E  E  E  E  E   
--------------------------|
--------------------------|
--------------------4--5--|
--5--5--5--5--5--0--------|


Bridge Pt. 1 (The cold river washed him away...)[B1]

  E  E  E  E  E  E  E  E   
--------------------------|
--------------------------|
--2--2--2--2--2--2--2--2--|
--------------------------|


  E  E  E  E  E  E  E  E   
--------------------------|
--------------------------|
--0--0--0--0--0--0--0--0--|
--------------------------|


  E  E  E  E  E  E  E  E   
--------------------------|
--------------------------|
--------------------------|
--2--2--2--2--2--2--2--2--|


  E  E  E  E  E  E  E  E   
--------------------------|
--------------------------|
--------------------------|
--3--3--3--3--3--3--3--3--|


  E  E  E  E  E  E  E  E   
--------------------------|
--------------------------|
--2--2--2--2--2--2--2--2--|
--------------------------|


  E  E  E  E  E  E  E  E   
--------------------------|
--------------------------|
--4--4--4--5--5--5--7--7--|
--------------------------|


  E  E  E  E  E  E  E  E   
--------------------------|
--------------------------|
--------------------------|
--3--3--3--3--3--3--3--3--|


  E  E  E  E  E  E  E  E   
--------------------------|
--------------------------|
--------------------------|
--3--3--3--3--3--3--3--3--|


  E  E  E  E  E  E  E  E   
--------------------------|
--------------------------|
--2--2--2--2--2--2--2--2--|
--------------------------|


  E  E  E  E  E  E  E  E   
--------------------------|
--------------------------|
--------------------------|
--5--5--5--5--5--5--5--5--|


  E  E  E  E  E  E  E  E   
--------------------------|
--------------------------|
--------------------------|
--2--2--2--2--2--2--2--2--|


  E  E  E  E  E  Q.      
------------------------|
------------------------|
-----------------4------|
--3--3--3--3--3---------|


  E  E  E  E  E  E  E  E   
--------------------------|
--------------------------|
--2--2--2--2--2--2--2--2--|
--------------------------|


  E  E  E  E  E  E  E  E   
--------------------------|
--------------------------|
--4--4--4--5--7--7--7--7--|
--------------------------|


  E  E  E  E  E  E  E  E   
--------------------------|
--------------------------|
--------------------------|
--3--3--3--3--3--3--3--3--|


  E  E  E  E  E  E  E  E   
--------------------------|
--------------------------|
--2--2--2--2--2--2--2--2--|
--------------------------|


  E  E  E  E  E  E  E  E   
--------------------------|
--------------------------|
--5--5--5--5--5--5--5--5--|
--------------------------|


  E  E  E  E  E  E  E  E   
--------------------------|
--------------------------|
--------------------------|
--3--3--3--3--5--5--5--5--|


Bridge Pt. 2 (Tyler Clementi...)[B2]


  E  E  E  E  E  E  E  E   
--------------------------|
--------------------------|
--2--2--2--2--2--2--2--2--|
--------------------------|


  E  E  E  E  E  E  E  E   
--------------------------|
--------------------------|
--5--5--5--5--5--5--5--5--|
--------------------------|


  E  E  E  E  E  E  E  E   
--------------------------|
--------------------------|
--------------------------|
--5--5--5--5--5--5--5--5--|


  E  E  E  E  E  E  E  E   
--------------------------|
--------------------------|
--7--7--7--7--7--7--7--7--|
--------------------------|


  E  E  E  E  E  E  E  E   
--------------------------|
--------------------------|
--2--2--2--2--2--2--2--2--|
--------------------------|


  E  E  E  E  E  E  E  E   
--------------------------|
--------------------------|
--5--5--5--5--5--5--5--5--|
--------------------------|


  E  E  E  E  E  E  E  E   
--------------------------|
--------------------------|
--------------------------|
--5--5--5--5--5--5--5--5--|


  E  E  E  E  E  E  E  E   
--------------------------|
--------------------------|
--------------------------|
--0--0--0--0--0--2--3--0--|


  E  E  E  E  E  E  E  E   
--------------------------|
--------------------------|
--2--2--2--2--2--2--2--2--|
--------------------------|


  E  E  E  E  E  E  E  E   
--------------------------|
--------------------------|
--5--5--5--5--5--5--5--5--|
--------------------------|


  E  E  E  E  E  E  E  E   
--------------------------|
--------------------------|
--------------------------|
--5--5--5--5--5--5--5--5--|


  E  E  E  E  E  E  E  E   
--------------------------|
--------------------------|
--------------------------|
--0--0--0--0--0--0--0--0--|


  E  E  E  E  E  E  E  E   
--------------------------|
--------------------------|
--2--2--2--2--2--2--2--2--|
--------------------------|


  E  E  E  E  E  E  E  E   
--------------------------|
--------------------------|
--5--5--5--5--5--5--5--5--|
--------------------------|


  E  E  E  E  E  E  E  E   
--------------------------|
--------------------------|
--------------------------|
--5--5--5--5--5--5--5--5--|


  E  E  E  E  E  E  E  E   
--------------------------|
--------------------------|
--------------------------|
--0--0--0--0--0--2--3--0--|


Outro (Chorus 3) [OUT]


  E  E  E  E  E  E  E  E   
--------------------------|
--------------------------|
--2--2--2--2--2--2--2--2--|
--------------------------|


  E  E  E  E  E  E  E  E   
--------------------------|
--------------------------|
--5--5--5--5--5--5--5--5--|
--------------------------|


  E  E  E  E  E  E  E  E   
--------------------------|
--------------------------|
--------------------------|
--5--5--5--5--5--5--5--5--|


  E  E  E  E  E  E  E  E   
--------------------------|
--------------------------|
--------------------------|
--0--0--0--0--0--0--0--0--|


  E  E  E  E  E  E  E  E   
--------------------------|
--------------------------|
--2--2--2--2--2--2--2--2--|
--------------------------|


  E  E  E  E  E  E  E  E   
--------------------------|
--------------------------|
--5--5--5--5--5--5--5--5--|
--------------------------|


  E  E  E  E  E  E  E  E   
--------------------------|
--------------------------|
--------------------------|
--5--5--5--5--5-----------|


  E  E  E  E  E  E  E  E   
--------------------------|
--------------------------|
--------------------------|
--0--0--0--0--0-----------|


  E  E  E  E  E  E  E  E   
--------------------------|
--------------------------|
--2--2--2--2--2--2--2--2--|
--------------------------|


  E  E  E  E  E  E  E  E   
--------------------------|
--------------------------|
--5--5--5--5--5--5--5--5--|
--------------------------|


  E  E  E  E  E  E  E  E   
--------------------------|
--------------------------|
--------------------------|
--5--5--5--5--5--5--5--5--|


  E  E  E  E  E  E  E  E   
--------------------------|
--------------------------|
--------------------------|
--0--0--0--0--0--0--0--0--|


  E  E  E  E  E  E  E  E   
--------------------------|
--------------------------|
--2--2--2--2--2--2--2--2--|
--------------------------|


  E  E  E  E  E  E  E  E   
--------------------------|
--------------------------|
--5--5--5--5--5--5--5--5--|
--------------------------|


  E  E  E  E  E  E  E  E   
--------------------------|
--------------------------|
--------------------------|
--5--5--5--5--5-----------|


  E  E  E  E  E  E  E  E    
--------------------------||
--------------------------||
--------------------------||
--0--0--0--0--0-----------||



To make your reading and learning experience much more easier, navigate through 
the sections of the song this way.

Press ctrl+F and type the letters and numbers in brackets to go to each section.

Intro
Main Riff [MR]
Verse 1 [V1]
Pre-Chorus 1 [PC1]
Chorus 1 [C1]
Post-Chorus 1 [POC 1]
Interlude [INT]
Verse 2 [V2]
Pre-Chorus 2 [PC2]
Chorus 2 [C2]
Post-Chorus 2 [POC 2]
Bridge Pt. 1 [B1]
Bridge Pt. 2 [B2]
Outro Chorus [OUT]





Duration Legend
---------------
W - whole
H - half
Q - quarter
E - 8th
S - 16th
T - 32nd
X - 64th
. - note dotted
|-n-|  - n-tuplets


Tablature Legend
----------------
L - tied note
x - dead note
g - grace note
(n) - ghost note
> - accentuded note
NH - natural harmonic
AH - artificial harmonic
TH - tapped harmonic
SH - semi harmonic
PH - pitch harmonic
h - hammer on
p - pull off
b - bend
br - bendRelease
pb - preBend
pbr - preBendRelease
brb - bendReleaseBend
\n/ - tremolo bar dip
\n - tremolo bar dive
-/n - tremolo bar Release up
/n\ - tremolo bar inverted dip
/n - tremolo bar return
-\n - tremolo bar Release down
S - shift slide
s - legato slide
/ -  slide into from below or out of upwards
\ -  slide into from above or out of downwards
~ - vibrato
W - wide vibrato
tr - trill
TP - tremolo picking
T - tapping
S - slap
P - pop
< - fade in
^ - brush up
v - brush down

            
            
Suggest correction
Creating personal tab
Creating personal tab
You can edit any tab online and save it as your Personal.

You can edit, replace or remove any tab part or add personal notes – all changes will be seen only by you.

Personal tabs can be accessed anytime from any device, even offline.
Learn more »
comments
print report bad tab
1 comment total.
0 reply
jrarmstro 806 Feb 21, 2017 05:40 PM

Literally can't make the page scroll fast enough >.<

guest
You may want to rate the tab now too:
select rating
Wanna post a correction for this tab? Suggest correction