Oops, an error
Loading. Please wait.

Make It Stop Tab

3,929 views 9 this week
no commentswrite comment
1 2 3 4 5
please rate
add to favorites
launch autoscroll
font size
0
reset
how to read this tab
guitar tuner
Autoscroll
slow
fast
+/-
esc
set tempo
stop
Help us to improve Ultimate-Guitar.com Take our survey!
×
Difficulty
intermediate
Make It Stop
Rise Against
Standard Tuning

intro with tremelo
e--------------|
b--------------|
g-----8-----10-|
d-10--8--8--10-|
a-10--6--8--8--|
e-8------6-----|

then this riff is played twice and the same chords from the intro are played
e----8--------------------------------|
b-----8------8-----------8-9-8--------|
g------8--10---10-8-10-10-------------|x2
d-10----------------------------------|
a-------------------------------------|
e-------------------------------------|

Verse
Starts with bass playing
g----------------------------------------------------------------|
d----------------------------------------------------------------|x2 alone
a----------------6-6-6-6-6-6-6-6---------------8-8-8-8-8-8-8-8---|x2 with guitar
e-8-8-8-8-8-8-8-8---------------6-6-6-6-6-6-6-6------------------|

Then the guitar plays with tremolo like intro(corresponds with bass part)
e-----------------------------------------------------------------|
b-----------------------------------------------------------------|
g------------------8----------------------------10-----------------|
d-10---------------8-------------8--------------10-----------------|
a-10---------------6-------------8--------------8------------------|
e-8------------------------------6---------------------------------|


Pre Chorus
e------------------------------------------------|
b------------------------------------------------|
g------------------------------------------------|
d----6------8------6------8------6------8--------|
a----6-x8---8-x8---6-x8---8-x8---6-x8---8-x4-----|
e----4------6------4------6------4------6--------|

Chorus(x8 for each chord)
e--------------|
b--------------|
g-----8-----10-|
d-10--8--8--10-|x3
a-10--6--8--10-|
e-8------6-----|

e-------------------|
b-------------------|
g-------------------|
d----6------8-------|
a----6-x8---8-x8----|
e----4------6-------|

Break(chorus chords under this)
e----8--------------------------------|
b-----8------8-----------8-9-8--------|
g------8--10---10-8-10-10-------------|x2
d-10----------------------------------|
a-------------------------------------|
e-------------------------------------|

Verse 2
Starts with bass playing
g----------------------------------------------------------------|
d----------------------------------------------------------------|x2 alone
a----------------6-6-6-6-6-6-6-6---------------8-8-8-8-8-8-8-8---|x2 with guitar
e-8-8-8-8-8-8-8-8---------------6-6-6-6-6-6-6-6------------------|

After bass plays part once, guitar plays this over it
eb-------------------------------------------------------------------|
bb-------------------------------------------------------------------|
gb-12-x16------------------------10 x16------------------------------|
db-------------------------------------------------------------------|
ab-------------------------------------------------------------------|
eb-------------------------------------------------------------------|
Then the guitar plays with tremolo like intro(corresponds with bass part)
eb-------------------------------------------------------------------|
bb-------------------------------------------------------------------|
gb------------------8----------------------------10------------------|
db-10---------------8-------------8--------------10------------------|
ab-10---------------6-------------8--------------8-------------------|
eb-8------------------------------6----------------------------------|

Pre Chorus
e-------------------------------------------------|
b-------------------------------------------------|
g-------------------------------------------------|
d----6------8------6----6-5------6------8---------|
a----6------8------6---6-6-6-----6------6-x5------|
e----4------6------4-------------4------6---------|

Chorus
e--------------|
b--------------|
g-----8-----10-|
d-10--8--8--10-|x3
a-10--6--8--8--|
e-8------6-----|

e-------------------|
b-------------------|
g-------------------|
d----6------8-------|
a----6-x8---8-x8----|
e----4------6-------|

Bridge
e------------------------------------------------|
b------------------------------------------------|
g---5------3-------------------------------------|
d---5-x8---3-x8---5-----6------------------------|  x4
a---3------1------5-x8--6-x8---------------------|
e-----------------3-----4------------------------|

then play
e----------------|
b----------------|
g-5--------------|
d-5-x8-6----8----| right after this start the outro which is just the intro again
b-3----6-x8-8-x8-|
e------4----6----|


e--------------|
b--------------|
g-----8-----10-|
d-10--8--8--10-|
a-10--6--8--8--|
e-8------6-----|

Then play only part of chorus
e--------------|
b--------------|
g-----8-----10-|
d-10--8--8--10-|x3
a-10--6--8--8--|
e-8------6-----|
Suggest correction
What's this?
You can suggest a correction to this tab. Community and Mods will review your correction and vote to approve or reject it.
comments
We did not receive enough feedback on this tab! Please rate:
print report bad tab
1 2 3 4 5
guest
You may want to rate the tab now too:
select rating
Please do not post tabs as comments. Select "correction" instead!