Oops, an error
Loading. Please wait.

Methadone tab

version 3
version 3

Whole song

Interactive

7 views 1 this week
no commentswrite comment
1 2 3 4 5
3 more votes to show rating
add to favorites
×
Save as Personal and add changes to this tab that will be seen only by you. Learn more ›
×
You can save this tab as Personal to edit and correct it or add notes. All changes will be seen only by you. Learn more »
launch autoscroll
font size
0
reset
how to read this tab
guitar tuner
edit
Autoscroll
slow
fast
+/-
esc
set tempo
stop
Artist: Rise Against
Song: Methadone
Album: The Black Market (2014)

Guitar 1 (Eb Ab Db Gb Bb eb) - 'Tim McIlrath - Distortion, Rhythm'
Guitar 2 (Eb Ab Db Gb Bb eb) - 'Zach Blair - Distortion, Rhythm'
Guitar 3 (Eb Ab Db Gb Bb eb) - 'Zach Blair - Distortion, Lead'
Guitar 4 (Eb Ab Db Gb Bb eb) - 'Tim McIlrath - Light Distortion'

- This tab may not be 100% accurate as some guitar lines are quite difficult to hear.
- Pay attention to the guitar labels as they can change unexpectedly. 
- Guitars will always be ordered in ascending order.

[Intro]
4/4
    All Guitars
    (W)                  (W)
eb||--------------------|--------------------|
Bb||--------------------|--------------------|
Gb||--------------[Drum intro]---------------|
Db||--------------------|--------------------|
Ab||--------------------|--------------------|
Eb||--------------------|--------------------|

[Verse 1]
   Gtr 4
     E E E E E E E E      E E E E E E E E      E E E E E E E E      E E E E E E E E
eb|----------0---------|----------0---------|----------0---------|----------0---------|
Bb|------4-----4---4---|------4-----4---4---|------4-----4---4---|------4-----4---4---|
Gb|----4---4-----4-----|----4---4-----4-----|----4---4-----4-----|----4---4-----4-----|
Db|--------------------|--------------------|--------------------|--------------------|
Ab|--0-----------------|--------------------|--4-----------------|--4-----------------|
Eb|--------------------|--2-----------------|--------------------|--------------------|

     E E E E E E E E      E E E E E E E E      E E E E E E E E      E E E E E E E E
eb|----------0---------|----------0---------|----------0---------|----------0---------|
Bb|------4-----4---4---|------4-----4---4---|------4-----4---4---|------4-----4---4---|
Gb|----4---4-----4-----|----4---4-----4-----|----4---4-----4-----|----4---4-----4-----|
Db|--------------------|--------------------|--------------------|--------------------|
Ab|--0-----------------|--------------------|--4-----------------|--2-----------------|
Eb|--------------------|--2-----------------|--------------------|--------------------|

   Gtr 2
     E E E E E E E E      E E E E E E E E      E E E E E E E E      E E E E E E E E
eb|--------------------|--------------------|--------------------|--------------------|
Bb|--------------------|--------------------|--------------------|--------------------|
Gb|--------------------|--------------------|--------------------|--------------------|
Db|--2-2-2-2-2-2-2-2---|--------------------|--6-6-6-6-6-6-6-6---|--4-4-4-4-4-4-4-4---|
Ab|--0-0-0-0-0-0-0-0---|--4-4-4-4-4-4-4-4---|--4-4-4-4-4-4-4-4---|--2-2-2-2-2-2-2-2---|
Eb|--------------------|--2-2-2-2-2-2-2-2---|--------------------|--------------------|
PM|  . . . . . . . .   |  . . . . . . . .   |  . . . . . . . .   |  . . . . . . . .   |
  |Gtr 4               |                    |                    |                    |
  |  E E E E E E E E   |  E E E E E E E E   |  E E E E E E E E   |  E E E E E E E E   |
eb|----------0---------|----------0---------|----------0---------|----------0---------|
Bb|------4-----4---4---|------4-----4---4---|------4-----4---4---|------4-----4---4---|
Gb|--4-4---4-----4-----|--4-4---4-----4-----|--4-4---4-----4-----|--4-4---4-----4-----|
Db|--------------------|--------------------|--------------------|--------------------|
Ab|--------------------|--------------------|--------------------|--------------------|
Eb|--------------------|--------------------|--------------------|--------------------|
PM|  . . . .   . . .   |  . . . .   . . .   |  . . . .   . . .   |  . . . .   . . .   |

     E E E E E E E E      E E E E E E E E      E E E E E E E E      E E E E E E E E
eb|--------------------|--------------------|--------------------|--------------------|
Bb|--------------------|--------------------|--------------------|--------------------|
Gb|--------------------|--------------------|--------------------|--------------------|
Db|--2-2-2-2-2-2-2-2---|--------------------|--6-6-6-6-6-6-6-6---|--6-6-6-6-6-6-6-6---|
Ab|--0-0-0-0-0-0-0-0---|--4-4-4-4-4-4-4-4---|--4-4-4-4-4-4-4-4---|--4-4-4-4-4-4-4-4---|
Eb|--------------------|--2-2-2-2-2-2-2-2---|--------------------|--------------------| [You can also Gtr 3 
PM|  . . . . . . . .   |  . . . . . . . .   |  . . . . . . . .   |  . . . . . . . .   |  which has feedback 
  |                    |                    |                    |                    | having vibrato on the
  |  E E E E E E E E   |  E E E E E E E E   |  E E E E E E E E   |  E E E E E E E E   |   4th fret of the G 
eb|----------0---------|----------0---------|----------0---------|----------0---------|        string]
Bb|------4-----4---4---|------4-----4---4---|------4-----4---4---|------4-----4---4---|
Gb|--4-4---4-----4-----|--4-4---4-----4-----|--4-4---4-----4-----|--4-4---4-----4-----|
Db|--------------------|--------------------|--------------------|--------------------|
Ab|--------------------|--------------------|--------------------|--------------------|
Eb|--------------------|--------------------|--------------------|--------------------|
PM|  . . . .   . . .   |  . . . .   . . .   |  . . . .   . . .   |  . . . .   . . .   |

     E E E E E E E E      E E E E E E E E      E E E E E E E E
eb|--------------------|--------------------|--------------------|
Bb|--------------------|--------------------|--------------------|
Gb|--------------------|--------------------|--------------------|
Db|--2-2-2-2-2-2-2-2---|--------------------|--6-6-6-6-6-6-6-6---|
Ab|--0-0-0-0-0-0-0-0---|--4-4-4-4-4-4-4-4---|--4-4-4-4-4-4-4-4---|
Eb|--------------------|--2-2-2-2-2-2-2-2---|--------------------|
PM|  . . . . . . . .   |  . . . . . . . .   |  . . . . . . . .   |
  |                    |                    |                    |
  |  E E E E E E E E   |  E E E E E E E E   |  E E E E E E E E   |
eb|----------0---------|----------0---------|----------0---------|
Bb|------4-----4---4---|------4-----4---4---|------4-----4---4---|
Gb|--4-4---4-----4-----|--4-4---4-----4-----|--4-4---4-----4-----|
Db|--------------------|--------------------|--------------------|
Ab|--------------------|--------------------|--------------------|
Eb|--------------------|--------------------|--------------------|
PM|  . . . .   . . .   |  . . . .   . . .   |  . . . .   . . .   |


[Pre-Chorus 1]
   Gtr 1
    (H)     (Q.)     E     +E E Q   E E E E      E E E E E E E E     +E E Q   E E E E
eb|----------------------|--------------------|--------------------|--------------------|
Bb|----------------------|--------------------|--------------------|--------------------|
Gb|------------------4---|----4-4---4-4-4-4---|--4-4-4-4-------6---|----6-6---6-6-6-6---|
Db|------------------4---|----4-4---4-4-4-4---|--4-4-4-4-2-2-2-6---|----6-6---6-6-6-6---|
Ab|------------------2---|----2-2---2-2-2-2---|--2-2-2-2-2-2-2-4---|----4-4---4-4-4-4---|
Eb|----------------------|--------------------|----------0-0-0-----|--------------------|
  |                      |                    |                    |                    |
  |Gtr 2                 |                    |                    |                    |
  |  H       E  E(E) E   | +E E Q   E E E E   |  E E E E E E(E)E   | +E E Q   E E E E   |
eb|--4-------------------|--------------------|--------------------|--------------------|
Bb|--5-------------------|--------------------|--------------------|--------------------|
Gb|--6-------14-13-------|----8-8---8-8-8-8---|--8-8-8-8-9-11--6---|----6-6---6-6-6-6---|
Db|--6-------x--x----9---|----9-9---9-9-9-9---|--9-9-9-9-x-x---6---|----6-6---6-6-6-6---|
Ab|--4-------12-11---9---|----9-9---9-9-9-9---|--9-9-9-9-7-9---4---|----4-4---4-4-4-4---|
Eb|------------------7---|----7-7---7-7-7-7---|--7-7-7-7-----------|--------------------|

     E E E E E  E  E  E     +E E Q   E E E E      E E E E E E E E     +E E Q   E E E E
eb|-----------------------|--------------------|--------------------|--------------------|
Bb|-----------------------|--------------------|--------------------|--------------------|
Gb|--6-6-6-6-2--2--2--4---|----4-4---4-4-4-4---|--4-4-4-4-----------|--------------------|
Db|--6-6-6-6-2--2--2--4---|----4-4---4-4-4-4---|--4-4-4-4-2-2-2-4---|----4-4---4-4-4-6---|
Ab|--4-4-4-4-0--0--0--2---|----2-2---2-2-2-2---|--2-2-2-2-2-2-2-4---|----4-4---4-4-4-6---|
Eb|-----------------------|--------------------|----------0-0-0-2---|----2-2---2-2-2-4---|
  |                       |                    |                    |                    |
  |  E E E E E  E (E) E   | +E E Q   E E E E   |  E E E E E E(E)E   | +E E Q   E E E E   |
eb|-----------------------|--------------------|--------------------|--------------------|
Bb|-----------------------|--------------------|--------------------|--------------------|
Gb|--6-6-6-6-14-13--------|----8-8---8-8-8-8---|--8-8-8-8-9-8---9---|----9-9---9-9-9-8---|
Db|--6-6-6-6-x--x-----9---|----9-9---9-9-9-9---|--9-9-9-9-x-x---x---|----x-x---x-x-x-x---|
Ab|--4-4-4-4-12-11----9---|----9-9---9-9-9-9---|--9-9-9-9-7-6---7---|----7-7---7-7-7-6---|
Eb|-------------------7---|----7-7---7-7-7-7---|--7-7-7-7-----------|--------------------|

    +E E Q   E E E E     +E  E  E  E  E  E  E  E       E(Q.)  (H)
eb|--------------------|----------------------------|--------------------|
Bb|--------------------|----------------------------|--------------------|
Gb|----------------2---|-----2--2--2--2--2--2--2----|--4-----------------|
Db|----6-6---6-6-6-2---|-----2--2--2--2--2--2--2----|--4-----------------|
Ab|----6-6---6-6-6-0---|-----0--0--0--0--0--0--0----|--2-----------------|
Eb|----4-4---4-4-4-----|----------------------------|--------------------|
  |                    |                            |                    |
  | +E E Q   E E E E   | +E  E  E  E  E  E  E  E    |  E E E E E E E E   |
eb|--------------------|----------------------------|--7---7-7---7-7-----|
Bb|--------------------|-----15-15-15-15-15-15-15---|--7h9-9-7h9-9-7-----|
Gb|----8-8---8-8-8-9---|-----12-12-12-12-12-12-12---|----------------9---| [Let notes in the last bar ring 
Db|----x-x---x-x-x-x---|----------------------------|--------------------|               out]
Ab|----6-6---6-6-6-7---|----------------------------|--------------------|
Eb|--------------------|----------------------------|--------------------|


[Chorus 1]
   Gtr 1 & 2
     E E E E E E E E      E E E E E E E E      E E E E E E E E      E E E E E E E E   (x2)
eb|--------------------|--------------------|--------------------|--------------------|
Bb|o-------------------|--------------------|--------------------|-------------------o|
Gb|--6-6-6-6-6-6-6-6---|--2-2-2-2-2-2-2-2---|--9-9-9-9-9-9-9-9---|--4-4-4-4-4-4-4-4---|
Db|--6-6-6-6-6-6-6-6---|--2-2-2-2-2-2-2-2---|--9-9-9-9-9-9-9-9---|--4-4-4-4-4-4-4-4---|
Ab|o-4-4-4-4-4-4-4-4---|--0-0-0-0-0-0-0-0---|--7-7-7-7-7-7-7-7---|--2-2-2-2-2-2-2-2--o|
Eb|--------------------|--------------------|--------------------|--------------------|
  |                    |                    |                    |                    |
  |Gtr 3               |                    |                    |                    |
  |  E E E E E E E E   |  E E E E E E E E   |  E E E E E E E E   |  E E E E E E E E   |
eb|--7---7-7---7-7-----|--7---7-7---7-7-----|--7---7-7---7-7-----|--7---7-7---7-7-----|
Bb|o-7h9-9-7h9-9-7-----|--7h9-9-7h9-9-7-----|--7h9-9-7h9-9-7-----|--7h9-9-7h9-9-7----o|
Gb|----------------9---|----------------9---|----------------9---|----------------9---|
Db|--------------------|--------------------|--------------------|--------------------|
Ab|o-------------------|--------------------|--------------------|-------------------o|
Eb|--------------------|--------------------|--------------------|--------------------|   

     E  E  E  E  E  E  E  E      E  E  E  E  E  E  E  E      E  E  E  E  E  E  E  E      E E E E E E E E
eb|---------------------------|---------------------------|---------------------------|--------------------|
Bb|---------------------------|---------------------------|---------------------------|--------------------|
Gb|--6--6--6--6--6--6--6--6---|--2--2--2--2--2--2--2--2---|--9--9--9--9--9--9--9--9---|--4-4-4-4-4-4-4-4---|
Db|--6--6--6--6--6--6--6--6---|--2--2--2--2--2--2--2--2---|--9--9--9--9--9--9--9--9---|--4-4-4-4-4-4-4-4---|
Ab|--4--4--4--4--4--4--4--4---|--0--0--0--0--0--0--0--0---|--7--7--7--7--7--7--7--7---|--2-2-2-2-2-2-2-2---|
Eb|---------------------------|---------------------------|---------------------------|--------------------|
  |                           |                           |                           |                    |
  |  E  E  E  E  E  E  E  E   |  E  E  E  E  E  E  E  E   |  E  E  E  E  E  E  E  E   |  E E E E E E E E   |
eb|--0--0--0--0--0--0--0--0---|--0--0--0--0--0--0--0--0---|--0--0--0--0--0--0--0--0---|----0-0-0-0-0-0-0---|
Bb|--12-12-12-12-12-12-12-12--|--12-12-12-12-12-12-12-12--|--12-12-12-12-12-12-12-12\-|----5-5-5-5-5-5-5---|
Gb|---------------------------|---------------------------|---------------------------|--------------------|
Db|---------------------------|---------------------------|---------------------------|--------------------|
Ab|---------------------------|---------------------------|---------------------------|--------------------|
Eb|---------------------------|---------------------------|---------------------------|--------------------|

     E E E E E E E  E      E  E E E E E E  E      E E E E E E E E      E E E E E  E  E  E
eb|---------------------|----------------------|--------------------|-----------------------|
Bb|---------------------|----------------------|--------------------|-----------------------|
Gb|--2-2-2-2-2-2-2--2---|--2--2-2-2-2-2-2--2---|--2-2-2-2-2-2-2-2---|--2-2-2-2-2--4--4--4---|
Db|--2-2-2-2-2-2-2--2---|--2--2-2-2-2-2-2--2---|--2-2-2-2-2-2-2-2---|--2-2-2-2-2--4--4--4---|
Ab|--0-0-0-0-0-0-0--0---|--0--0-0-0-0-0-0--0---|--0-0-0-0-0-0-0-0---|--0-0-0-0-0--2--2--2---|
Eb|---------------------|----------------------|--------------------|-----------------------|
  |                     |                      |                    |                       |
  |  E E E E E E E  E   |  E  E E E E E E  E   |  E E E E E E Q     | +Q.    E E  E  Q      |
eb|---------------------|----------------------|--------------------|-----------------------|
Bb|--------------12-12--|--12-----------12-12--|--------------12~---|----------12s14-12-----|
Gb|--8-8-8-9-9-9--------|-----8-8-8-9-9--------|--8-8-8-9-9-9-------|--------9--------------|
Db|---------------------|----------------------|--------------------|-----------------------|
Ab|---------------------|----------------------|--------------------|-----------------------|
Eb|---------------------|----------------------|--------------------|-----------------------|


[Post-Chorus]
   Gtr 1
     W                          +W                   +W                   +W
eb|---------------------------|--------------------|--------------------|----------------------|
Bb|---------------------------|--------------------|--------------------|----------------------|
Gb|--2------------------------|--------------------|--------------------|----------------------|
Db|--2------------------------|--------------------|--------------------|----------------------|
Ab|--0------------------------|--------------------|--------------------|----------------------|
Eb|---------------------------|--------------------|--------------------|----------------------|
  |                           |                    |                    |                      |
  |Gtr 2                      |                    |                    |                      |
  |  E  E  E  E  E  E  E  E   |  E E E E E E E E   |  E E E E E E E E   |  E E E E E E  E  E   |
eb|---------------------------|--------------------|--------------------|----------------------|
Bb|---------------------------|--------------------|--------------------|---------------9-10---|
Gb|--11-11-11-11-11h13-11-9---|--9-9-9-9-8h9-8-6---|--9-9-9-9-9-9-9-9---|--9-9-9-9-9h11--------|
Db|---------------------------|--------------------|--------------------|----------------------|
Ab|---------------------------|--------------------|--------------------|----------------------|
Eb|---------------------------|--------------------|--------------------|----------------------|
PM|  .  .  .  .               |  . . . .           |  . . . . . . . .   |  . . . .             |


[Verse 2]
   Gtr 1
     E E E E E E E E      E E E E E E E E      E E E E E E E E      E E E E E E E E
eb|--------------------|--------------------|--------------------|--------------------|
Bb|--------------------|--------------------|--------------------|--------------------|
Gb|--------------------|--------------------|--------------------|--------------------|
Db|--------------------|--------------------|--------------------|--------------------|
Ab|--0-0-0-0-0-0-0-0---|--------------------|--4-4-4-4-4-4-4-4---|--4-4-4-4-4-4-4-4---|
Eb|--------------------|--2-2-2-2-2-2-2-2---|--------------------|--------------------|
PM|  . . . . . . . .   |  . . . . . . . .   |  . . . . . . . .   |  . . . . . . . .   |

     E E E E E E E E      E E E E E E E E      E E E E E E E E      E E E E E E E E
eb|--------------------|--------------------|--------------------|--------------------|
Bb|--------------------|--------------------|--------------------|--------------------|
Gb|--------------------|--------------------|--------------------|--------------------|
Db|--------------------|--------------------|--------------------|--------------------|
Ab|--0-0-0-0-0-0-0-0---|--------------------|--4-4-4-4-4-4-4-4---|--2-2-2-2-2-2-2-2---|
Eb|--------------------|--2-2-2-2-2-2-2-2---|--------------------|--------------------|
PM|  . . . . . . . .   |  . . . . . . . .   |  . . . . . . . .   |  . . . . . . . .   |

   Gtr 1 & 2
     Q   E E E E E E      E E E E E E E E      E E E E E E E E      E E E E E E E E
eb|--------------------|--------------------|--------------------|--------------------|
Bb|--------------------|--------------------|--------------------|--------------------|
Gb|--------------------|--------------------|--------------------|--------------------|
Db|--2---2-2-2-2-2-2---|--------------------|--6-6-6-6-6-6-6-6---|--4-4-4-4-4-4-4-4---|
Ab|--0---0-0-0-0-0-0---|--4-4-4-4-4-4-4-4---|--4-4-4-4-4-4-4-4---|--2-2-2-2-2-2-2-2---|
Eb|--------------------|--2-2-2-2-2-2-2-2---|--------------------|--------------------|
PM|      . . . . . .   |  . . . . . . . .   |  . . . . . . . .   |  . . . . . . . .   |
  |Gtr 4               |                    |                    |                    |
  |  E E E E E E E E   |  E E E E E E E E   |  E E E E E E E E   |  E E E E E E E E   |
eb|----------0---------|----------0---------|----------0---------|----------0---------|
Bb|------4-----4---4---|------4-----4---4---|------4-----4---4---|------4-----4---4---|
Gb|--4-4---4-----4-----|--4-4---4-----4-----|--4-4---4-----4-----|--4-4---4-----4-----|
Db|--------------------|--------------------|--------------------|--------------------|
Ab|--------------------|--------------------|--------------------|--------------------|
Eb|--------------------|--------------------|--------------------|--------------------|
PM|  . . . .     . .   |  . . . .     . .   |  . . . .     . .   |  . . . .     . .   |

     Q   E E E E E E      E E E E E E E E      E E E E E E E E
eb|--------------------|--------------------|--------------------|
Bb|--------------------|--------------------|--------------------|
Gb|--------------------|--------------------|--------------------|
Db|--2---2-2-2-2-2-2---|--------------------|--6-6-6-6-6-6-6-6---|
Ab|--0---0-0-0-0-0-0---|--4-4-4-4-4-4-4-4---|--4-4-4-4-4-4-4-4---|
Eb|--------------------|--2-2-2-2-2-2-2-2---|--------------------|
PM|      . . . . . .   |  . . . . . . . .   |  . . . . . . . .   |
  |                    |                    |                    |
  |  E E E E E E E E   |  E E E E E E E E   |  E E E E E E E E   |
eb|----------0---------|----------0---------|----------0---------|
Bb|------4-----4---4---|------4-----4---4---|------4-----4---4---| [There is also more half a bar
Gb|--4-4---4-----4-----|--4-4---4-----4-----|--4-4---4-----4-----|  of this riff at the beginning
Db|--------------------|--------------------|--------------------|       of the pre-chorus]
Ab|--------------------|--------------------|--------------------|
Eb|--------------------|--------------------|--------------------|
PM|  . . . .     . .   |  . . . .     . .   |  . . . .     . .   |


[Pre-Chorus 2]
   Gtr 1
     E E E E E E  E  E     +E E Q   E E E E      E E E E E E E E     +E E Q   E E E E
eb|----------------------|--------------------|--------------------|--------------------|
Bb|----------------------|--------------------|--------------------|--------------------|
Gb|--6-6-6-6-6-6--6--4---|----4-4---4-4-4-4---|--4-4-4-4-------6---|----6-6---6-6-6-6---|
Db|--6-6-6-6-6-6--6--4---|----4-4---4-4-4-4---|--4-4-4-4-2-2-2-6---|----6-6---6-6-6-6---|
Ab|--4-4-4-4-4-4--4--2---|----2-2---2-2-2-2---|--2-2-2-2-2-2-2-4---|----4-4---4-4-4-4---|
Eb|----------------------|--------------------|----------0-0-0-----|--------------------|
PM|                      |                    |                    |                    |
  |Gtr 2                 |                    |                    |                    |
  |  E E E E E  E(E) E   | +E E Q   E E E E   |  E E E E E E(E)E   | +E E Q   E E E E   |
eb|----------------------|--------------------|--------------------|--------------------|
Bb|----------------------|--------------------|--------------------|--------------------|
Gb|--6-6-6-6-14-13-------|----8-8---8-8-8-8---|--8-8-8-8-9-11--6---|----6-6---6-6-6-6---|
Db|--6-6-6-6-x--x----9---|----9-9---9-9-9-9---|--9-9-9-9-x-x---6---|----6-6---6-6-6-6---|
Ab|--4-4-4-4-12-11---9---|----9-9---9-9-9-9---|--9-9-9-9-7-9---4---|----4-4---4-4-4-4---|
Eb|------------------7---|----7-7---7-7-7-7---|--7-7-7-7-----------|--------------------|

     E E E E E  E  E  E     +E E Q   E E E E      E E E E E E E E     +E E Q   E E E E
eb|-----------------------|--------------------|--------------------|--------------------|
Bb|-----------------------|--------------------|--------------------|--------------------|
Gb|--6-6-6-6-2--2--2--4---|----4-4---4-4-4-4---|--4-4-4-4-----------|--------------------|
Db|--6-6-6-6-2--2--2--4---|----4-4---4-4-4-4---|--4-4-4-4-2-2-2-4---|----4-4---4-4-4-6---|
Ab|--4-4-4-4-0--0--0--2---|----2-2---2-2-2-2---|--2-2-2-2-2-2-2-4---|----4-4---4-4-4-6---|
Eb|-----------------------|--------------------|----------0-0-0-2---|----2-2---2-2-2-4---|
  |                       |                    |                    |                    |
  |  E E E E E  E (E) E   | +E E Q   E E E E   |  E E E E E E(E)E   | +E E Q   E E E E   |
eb|-----------------------|--------------------|--------------------|--------------------|
Bb|-----------------------|--------------------|--------------------|--------------------|
Gb|--6-6-6-6-14-13--------|----8-8---8-8-8-8---|--8-8-8-8-9-8---9---|----9-9---9-9-9-8---|
Db|--6-6-6-6-x--x-----9---|----9-9---9-9-9-9---|--9-9-9-9-x-x---x---|----x-x---x-x-x-x---|
Ab|--4-4-4-4-12-11----9---|----9-9---9-9-9-9---|--9-9-9-9-7-6---7---|----7-7---7-7-7-6---|
Eb|-------------------7---|----7-7---7-7-7-7---|--7-7-7-7-----------|--------------------|

    +E E Q   E E E E     +E  E  E  E  E  E  E  E       E(Q.)  (H)          (Q.)   E+H  
eb|--------------------|----------------------------|--------------------|--------------------|
Bb|--------------------|----------------------------|--------------------|--------------------|
Gb|----------------2---|-----2--2--2--2--2--2--2----|--4-----------------|--------------------|
Db|----6-6---6-6-6-2---|-----2--2--2--2--2--2--2----|--4-----------------|--------------------|
Ab|----6-6---6-6-6-0---|-----0--0--0--0--0--0--0----|--2-----------------|--------------------|
Eb|----4-4---4-4-4-----|----------------------------|--------------------|--------[Pick slide]|
  |                    |                            |                    |                    |
  | +E E Q   E E E E   | +E  E  E  E  E  E  E  E    |  E E E E E E E E   |  H.          Q     |
eb|--------------------|----------------------------|--7---7-7---7-7-----|--------------------|
Bb|--------------------|-----15-15-15-15-15-15-15---|--7h9-9-7h9-9-7-----|--0-----------------|
Gb|----8-8---8-8-8-9---|-----12-12-12-12-12-12-12---|----------------9---|--4-----------------|
Db|----x-x---x-x-x-x---|----------------------------|--------------------|--------------------|
Ab|----6-6---6-6-6-7---|----------------------------|--------------------|--------------[Pick-|
Eb|--------------------|----------------------------|--------------------|-------------- slide]


[Chorus 2]
   Gtr 1 & 2
     E E E E E E E E      E E E E E E E E      E E E E E E E E      E E E E E E E E   (x2)
eb|--------------------|--------------------|--------------------|--------------------|
Bb|o-------------------|--------------------|--------------------|-------------------o|
Gb|--6-6-6-6-6-6-6-6---|--2-2-2-2-2-2-2-2---|--9-9-9-9-9-9-9-9---|--4-4-4-4-4-4-4-4---|
Db|--6-6-6-6-6-6-6-6---|--2-2-2-2-2-2-2-2---|--9-9-9-9-9-9-9-9---|--4-4-4-4-4-4-4-4---|
Ab|o-4-4-4-4-4-4-4-4---|--0-0-0-0-0-0-0-0---|--7-7-7-7-7-7-7-7---|--2-2-2-2-2-2-2-2--o|
Eb|--------------------|--------------------|--------------------|--------------------|
  |                    |                    |                    |                    |
  |Gtr 3               |                    |                    |                    |
  |  E E E E E E E E   |  E E E E E E E E   |  E E E E E E E E   |  E E E E E E E E   |
eb|--7---7-7---7-7-----|--7---7-7---7-7-----|--7---7-7---7-7-----|--7---7-7---7-7-----|
Bb|o-7h9-9-7h9-9-7-----|--7h9-9-7h9-9-7-----|--7h9-9-7h9-9-7-----|--7h9-9-7h9-9-7----o|
Gb|----------------9---|----------------9---|----------------9---|----------------9---|
Db|--------------------|--------------------|--------------------|--------------------|
Ab|o-------------------|--------------------|--------------------|-------------------o|
Eb|--------------------|--------------------|--------------------|--------------------|   

     E  E  E  E  E  E  E  E      E  E  E  E  E  E  E  E      E  E  E  E  E  E  E  E      E E E E E E E E
eb|---------------------------|---------------------------|---------------------------|--------------------|
Bb|---------------------------|---------------------------|---------------------------|--------------------|
Gb|--6--6--6--6--6--6--6--6---|--2--2--2--2--2--2--2--2---|--9--9--9--9--9--9--9--9---|--4-4-4-4-4-4-4-4---|
Db|--6--6--6--6--6--6--6--6---|--2--2--2--2--2--2--2--2---|--9--9--9--9--9--9--9--9---|--4-4-4-4-4-4-4-4---|
Ab|--4--4--4--4--4--4--4--4---|--0--0--0--0--0--0--0--0---|--7--7--7--7--7--7--7--7---|--2-2-2-2-2-2-2-2---|
Eb|---------------------------|---------------------------|---------------------------|--------------------|
  |                           |                           |                           |                    |
  |  E  E  E  E  E  E  E  E   |  E  E  E  E  E  E  E  E   |  E  E  E  E  E  E  E  E   |  E E E E E E E E   |
eb|--0--0--0--0--0--0--0--0---|--0--0--0--0--0--0--0--0---|--0--0--0--0--0--0--0--0---|----0-0-0-0-0-0-0---|
Bb|--12-12-12-12-12-12-12-12--|--12-12-12-12-12-12-12-12--|--12-12-12-12-12-12-12-12\-|----5-5-5-5-5-5-5---|
Gb|---------------------------|---------------------------|---------------------------|--------------------|
Db|---------------------------|---------------------------|---------------------------|--------------------|
Ab|---------------------------|---------------------------|---------------------------|--------------------|
Eb|---------------------------|---------------------------|---------------------------|--------------------|


[Guitar Solo]
   Gtr 1 & 2
     E E E E E E E  E      E  E E E E E E  E      E E E E E E E  E      E  E E E E E E  E
eb|---------------------|----------------------|---------------------|----------------------|
Bb|---------------------|----------------------|---------------------|----------------------|
Gb|--2-2-2-2-2-2-2--2---|--2--2-2-2-2-2-2--2---|--4-4-4-4-4-4-4--4---|--4--4-4-4-4-4-4--4---|
Db|--2-2-2-2-2-2-2--2---|--2--2-2-2-2-2-2--2---|--4-4-4-4-4-4-4--4---|--4--4-4-4-4-4-4--4---|
Ab|--0-0-0-0-0-0-0--0---|--0--0-0-0-0-0-0--0---|--2-2-2-2-2-2-2--2---|--2--2-2-2-2-2-2--2---|
Eb|---------------------|----------------------|---------------------|----------------------|
  |                     |                      |                     |                      |
  |Gtr 3                |                      |                     |                      |
  |  E E E E E E E  E   |  E  E E E E E E  E   |  E E E E E E E  E   |  E  E E E E E E  E   |
eb|---------------------|----------------------|---------------------|----------------------|
Bb|--------------12-12--|--12-----------12-12--|--------------12-12--|--12-----------12-12--|
Gb|--8-8-8-9-9-9--------|-----8-8-8-9-9--------|--8-8-8-9-9-9--------|-----8-8-8-9-9--------|
Db|---------------------|----------------------|---------------------|----------------------|
Ab|---------------------|----------------------|---------------------|----------------------|
Eb|---------------------|----------------------|---------------------|----------------------|

     E E E E E E E  E      E  E  E  E  E  E  E  E      E E E E E E E E      E  E  E  E  E E E E
eb|---------------------|---------------------------|--------------------|------------------------|
Bb|---------------------|---------------------------|--------------------|------------------------|
Gb|--6-6-6-6-6-6-6--6---|--6--6--6--6--6--6--6--6---|--2-2-2-2-2-2-2-2---|--2--2--2--2--2-2-2-2---|
Db|--6-6-6-6-6-6-6--6---|--6--6--6--6--6--6--6--6---|--2-2-2-2-2-2-2-2---|--2--2--2--2--2-2-2-2---|
Ab|--4-4-4-4-4-4-4--4---|--4--4--4--4--4--4--4--4---|--0-0-0-0-0-0-0-0---|--0--0--0--0--0-0-0-0---|
Eb|---------------------|---------------------------|--------------------|------------------------|
  |                     |                           |                    |                        |
  |  E E E E E E E  E   |  E  E  E  E  E  E  E  E   |  E E E E E E E E   |  E  E  E  E  E E Q     |
eb|---------------------|---------------------------|--------------------|------------------------|
Bb|--------------12-12--|--12-10-10-10-10-10-9--10--|--9-----------9-9---|--9--10-10-10-9-9-------|
Gb|--8-8-8-9-9-9--------|-----9--9--9--9--9--9--9---|--9-9-9-9-9-9-9-9---|--9--9--9--9--9-9-11----|
Db|---------------------|---------------------------|--------------------|------------------x-----|
Ab|---------------------|---------------------------|--------------------|------------------9-----|
Eb|---------------------|---------------------------|--------------------|------------------------|

     E  E  E  E  E  E  E  E      E E E E E E E E      E  E  E  E  E  E  E  E      E E E E E E E E
eb|---------------------------|--------------------|---------------------------|-----------------------|
Bb|---------------------------|--------------------|---------------------------|-----------------------|
Gb|---------------------------|--------------------|---------------------------|-----------------------|
Db|--2--2--2--2--2--2--2--2---|--2-2-2-2-2-2-2-2---|--4--4--4--4--4--4--4--4---|--4-4-4-4-4-4-4-4------|
Ab|--2--2--2--2--2--2--2--2---|--2-2-2-2-2-2-2-2---|--4--4--4--4--4--4--4--4---|--4-4-4-4-4-4-4-4------|
Eb|--0--0--0--0--0--0--0--0---|--0-0-0-0-0-0-0-0---|--2--2--2--2--2--2--2--2---|--2-2-2-2-2-2-2-2------|
  |                           |                    |                           |                       |
  |  E  E  E  E  E  E  E  E   | +E Q   Q   Q   E   |  E  E  E  E  E  E  E  E   | +E Q   Q   Q   S  S   |
eb|---------------------------|--------------------|---------------------------|-----------------------|
Bb|---------------------------|--------------------|---------------------------|-----------------------|
Gb|--11/13-13-13-13-13-13-14--|----13--11--9---9---|--9-/11-11-11-11-11-11-13--|----11--9---8---11-11--|
Db|--x--x--x--x--x--x--x--x---|----x---x---x---x---|--x--x--x--x--x--x--x--x---|----x---x---x----------|
Ab|--9-/11-11-11-11-11-11-12--|----11--9---7---7---|--7-/9--9--9--9--9--9--11--|----9---7---6----------|
Eb|---------------------------|--------------------|---------------------------|-----------------------|

     E  E  E  E  E E E E         E  E  E  E  E E E E      E  E  E  E  E E E E         E  E  E  E  E E E E
eb|---------------------------|------------------------|---------------------------|------------------------|
Bb|---------------------------|------------------------|---------------------------|------------------------|
Gb|--6--6--6--6--6-6-6-6------|--6--6--6--6--6-6-6-6---|---------------------------|------------------------|
Db|--6--6--6--6--6-6-6-6------|--6--6--6--6--6-6-6-6---|--6--6--6--6--6-6-6-6------|--6--6--6--6--6-6-6-6---|
Ab|--4--4--4--4--4-4-4-4------|--4--4--4--4--4-4-4-4---|--6--6--6--6--6-6-6-6------|--6--6--6--6--6-6-6-6---|
Eb|---------------------------|------------------------|--4--4--4--4--4-4-4-4------|--4--4--4--4--4-4-4-4---|
  |                           |                        |                           |                        |
  |  E  E  E  H        S  S   |  E  E  E  Q    Q.      |  E  E  E  H        S  S   |  E  E  E  Q    E  Q    |
eb|---------------------------|------------------------|---------------------------|------------------------|
Bb|---------------------------|------------------------|---------------------------|----------------12-x----|
Gb|--11-13-11-13-------11-11--|--11-13-11-9------------|--11-13-11-13-------11-11--|--11-13-11-9-------x----|
Db|---------------------------|----------------10------|---------------------------|------------------------|
Ab|---------------------------|------------------------|---------------------------|------------------------|
Eb|---------------------------|------------------------|---------------------------|------------------------|

     E  E  E  E  E  E  E  E      E  E  E  E  E  E  E  E      E E E E E E E E      E E E E E E Q   
eb|---------------------------|---------------------------|--------------------|--------------------|
Bb|---------------------------|---------------------------|--------------------|--------------------|
Gb|--2--2--2--2--2--2--2--2---|--2--2--2--2--2--2--2--2---|--4-4-4-4-4-4-4-4---|--4-4-4-4-4-4-4-----|
Db|--2--2--2--2--2--2--2--2---|--2--2--2--2--2--2--2--2---|--4-4-4-4-4-4-4-4---|--4-4-4-4-4-4-4-----|
Ab|--0--0--0--0--0--0--0--0---|--0--0--0--0--0--0--0--0---|--2-2-2-2-2-2-2-2---|--2-2-2-2-2-2-2-----|
Eb|---------------------------|---------------------------|--------------------|--------------------|
  |                           |                           |                    |                    |
  |  E  E  E  E  E  E  E  E   |  E  E  E  E  E  E  E  E   |  E E E E E E E E   |  E E E E E E Q     |
eb|---------------------------|---------------------------|--------------------|--------------------|
Bb|--10-10-10-9--9--9--12-12--|--12-9--9--9--10-10-9--9---|--7-7-7-5-5-5-4-4---|--4-5-5-5-4-4-0-----|
Gb|--9--9--9--9--9--9--9--9---|--9--9--9--9--9--9--9--9---|--4-4-4-4-4-4-4-4---|--4-4-4-4-4-4-------|
Db|---------------------------|---------------------------|--------------------|--------------------|
Ab|---------------------------|---------------------------|--------------------|--------------------|
Eb|---------------------------|---------------------------|--------------------|--------------------|


[Verse 3]
   Gtr 1 & 2
     W                   +W                   +W                   +W
eb|--------------------|--------------------|--------------------|--------------------|
Bb|--------------------|--------------------|--------------------|--------------------|
Gb|--6-----------------|--------------------|--------------------|--------------------|
Db|--6-----------------|--------------------|--------------------|--------------------|
Ab|--4-----------------|--------------------|--------------------|--------------------|
Eb|--------------------|--------------------|--------------------|--------------------|
  |                    |                    |                    |                    |
  |Gtr 4               |                    |                    |                    |
  |  Q   Q   Q   Q     |  Q   Q   Q   Q     |  Q   Q   Q   Q     |  Q   Q   Q   Q     |
eb|----------0---------|----------0---------|----------0---------|----------0---------|
Bb|----------0---------|----------0---------|----------0---------|----------0---------| [For this progression
Gb|--------------------|--------------------|--------------------|--------------------|  play the 2nd note of
Db|------6-------------|------2-------------|--------------------|--------------------| each bar very lightly]
Ab|--4-----------4-----|--0-----------0-----|------2-------------|------4-------------|
Eb|--------------------|--------------------|--0-----------0-----|--2-----------2-----|

   Gtr 4
     Q   Q   Q   Q        Q   Q   Q   Q        Q   Q   Q   Q        Q   Q   Q   Q
eb|----------0---------|----------0---------|----------0---------|----------0---------|
Bb|----------0---------|----------0---------|----------0---------|----------0---------|
Gb|--------------------|--------------------|--------------------|--------------------|
Db|------6-------------|------6-------------|------6-------6-----|------6-------6-----|
Ab|--4-----------4-----|--------------------|--0-----------------|--0-----------------|
Eb|--------------------|--4-----------4-----|--------------------|--------------------|

     Q   Q   Q   Q        Q   Q   Q   Q        Q   Q   Q   Q        Q   Q   Q   Q
eb|----------0---------|----------0---------|----------0---------|----------0---------|
Bb|----------0---------|----------0---------|----------0---------|----------0---------|
Gb|--------------------|--------------------|--------------------|--------------------|
Db|------6-------------|------2-------------|--------------------|--------------------|
Ab|--4-----------4-----|--0-----------0-----|------2-------------|------4-------------|
Eb|--------------------|--------------------|--0-----------0-----|--2-----------2-----|

   Gtr 1 & 2                                 5/4                      4/4
    (W)                  (W)                  (W)                       W
eb|--------------------|--------------------|------------------------|--------------------|
Bb|--------------------|--------------------|------------------------|--------------------|
Gb|--------------------|--------------------|------------------------|--------------------|
Db|--------------------|--------------------|------------------------|--------------------|
Ab|--------------------|--------------------|------------------------|--------------------|
Eb|--------------------|--------------------|------------------------|--[Pick slide]------|
  |                    |                    |                        |                    |
  |Gtr 3               |                    |                        |                    |
  | (W)                | (W)                | (W)                    |  E E E E E E E E   |
eb|--------------------|--------------------|------------------------|--7---7-7---7-7-----|
Bb|--------------------|--------------------|------------------------|--7h9-9-7h9-9-7-----|
Gb|--------------------|--------------------|------------------------|----------------9---|
Db|--------------------|--------------------|------------------------|--------------------|
Ab|--------------------|--------------------|------------------------|--------------------|
Eb|--------------------|--------------------|------------------------|--------------------|
  |                    |                    |                        |                    |
  |Gtr 4               |                    |                        |                    |
  |  Q   Q   Q   Q     |  Q   Q   Q   Q     |  W              +Q     | +W                 |
eb|----------0---------|----------0---------|--0---------------------|--------------------|
Bb|----------0---------|----------0---------|--0---------------------|--------------------|
Gb|--------------------|--------------------|--x---------------------|--------------------|
Db|------6-------------|------6-------------|--x---------------------|--------------------|
Ab|--4-----------4-----|--------------------|--0---------------------|--------------------|
Eb|--------------------|--4-----------4-----|------------------------|--------------------|


[Chorus 3]
   Gtr 1 & 2
     E E E E E E E E      E E E E E E E E      E E E E E E E E      E E E E E E E E   (x2)
eb|--------------------|--------------------|--------------------|--------------------|
Bb|o-------------------|--------------------|--------------------|-------------------o|
Gb|--6-6-6-6-6-6-6-6---|--2-2-2-2-2-2-2-2---|--9-9-9-9-9-9-9-9---|--4-4-4-4-4-4-4-4---|
Db|--6-6-6-6-6-6-6-6---|--2-2-2-2-2-2-2-2---|--9-9-9-9-9-9-9-9---|--4-4-4-4-4-4-4-4---|
Ab|o-4-4-4-4-4-4-4-4---|--0-0-0-0-0-0-0-0---|--7-7-7-7-7-7-7-7---|--2-2-2-2-2-2-2-2--o|
Eb|--------------------|--------------------|--------------------|--------------------|
  |                    |                    |                    |                    |
  |Gtr 3               |                    |                    |                    |
  |  E E E E E E E E   |  E E E E E E E E   |  E E E E E E E E   |  E E E E E E E E   |
eb|--7---7-7---7-7-----|--7---7-7---7-7-----|--7---7-7---7-7-----|--7---7-7---7-7-----|
Bb|o-7h9-9-7h9-9-7-----|--7h9-9-7h9-9-7-----|--7h9-9-7h9-9-7-----|--7h9-9-7h9-9-7----o|
Gb|----------------9---|----------------9---|----------------9---|----------------9---|
Db|--------------------|--------------------|--------------------|--------------------|
Ab|o-------------------|--------------------|--------------------|-------------------o|
Eb|--------------------|--------------------|--------------------|--------------------|   

     E   E   E   E   E   E   E   E        E   E   E   E   E   E   E   E
eb|------------------------------------|------------------------------------|
Bb|------------------------------------|------------------------------------|
Gb|--6---6---6---6---6---6---6---6-----|--2---2---2---2---2---2---2---2-----|
Db|--6---6---6---6---6---6---6---6-----|--2---2---2---2---2---2---2---2-----|
Ab|--4---4---4---4---4---4---4---4-----|--0---0---0---0---0---0---0---0-----|
Eb|------------------------------------|------------------------------------|
  |                                    |                                    |
  |  E   E   E   E   E   E   E   E     |  E   E   E   E   E   E   E   E     |
eb|--0-------0---0---0---0---0---0-----|--0---0---0---0---0---0---0---0-----|
Bb|--10-/12--12--12--12--12--12--12----|--12--12--12--12--12--14--14--12----|
Gb|------------------------------------|------------------------------------|
Db|------------------------------------|------------------------------------|
Ab|------------------------------------|------------------------------------|
Eb|------------------------------------|------------------------------------|

     E   E   E   E   E   E   E   E        E   E   E   E   E   E   E   E
eb|------------------------------------|------------------------------------|
Bb|------------------------------------|------------------------------------|
Gb|--9---9---9---9---9---9---9---9-----|--4---4---4---4---4---4---4---4-----|
Db|--9---9---9---9---9---9---9---9-----|--4---4---4---4---4---4---4---4-----|
Ab|--7---7---7---7---7---7---7---7-----|--2---2---2---2---2---2---2---2-----|
Eb|------------------------------------|------------------------------------|
  |                                    |                                    |
  |  E   E   E   E   E   E   E   E     |  E   E   E   E   E   E   E   E     |
eb|--0---0---0---0---0---0---0---0-----|--0---0---0---0---0---0---0---0-----|
Bb|--12--12--12--12--12--12--12--12----|--12--12--12--12--12--14--14--12----|
Gb|------------------------------------|------------------------------------|
Db|------------------------------------|------------------------------------|
Ab|------------------------------------|------------------------------------|
Eb|------------------------------------|------------------------------------|

     E   E   E   E   E   E   E   E        E   E   E   E   E   E   E   E
eb|------------------------------------|------------------------------------|
Bb|------------------------------------|------------------------------------|
Gb|--6---6---6---6---6---6---6---6-----|--2---2---2---2---2---2---2---2-----|
Db|--6---6---6---6---6---6---6---6-----|--2---2---2---2---2---2---2---2-----|
Ab|--4---4---4---4---4---4---4---4-----|--0---0---0---0---0---0---0---0-----|
Eb|------------------------------------|------------------------------------|
  |                                    |                                    |
  |  E   E   E   E   E   E   E   E     |  E   E   E   E   E   E   E   E     |
eb|--0---0---0---0---0---0---0---0-----|--0---0---0---0---0---0---0---0-----|
Bb|--12--12--12--12--12--12--12--12----|--12--12--12--12--12--14--14--12----|
Gb|------------------------------------|------------------------------------|
Db|------------------------------------|------------------------------------|
Ab|------------------------------------|------------------------------------|
Eb|------------------------------------|------------------------------------|

     E   E   E   E   E   E   E   E        E   E   E   E   E   E   E   E
eb|------------------------------------|------------------------------------|
Bb|------------------------------------|------------------------------------|
Gb|--9---9---9---9---9---9---9---9-----|--4---4---4---4---4---4---4---4-----|
Db|--9---9---9---9---9---9---9---9-----|--4---4---4---4---4---4---4---4-----|
Ab|--7---7---7---7---7---7---7---7-----|--2---2---2---2---2---2---2---2-----|
Eb|------------------------------------|------------------------------------|
  |                                    |                                    |
  |  E   E   E   E   E   E   E   E     |  E   E   E   E   H                 |
eb|--0---0---0---0---0---0---0---0-----|--0---0---0---0---------------------|
Bb|--12--12--12--12--12--12--12--12----|--12--12--12--12--[I'm not exactly -|
Gb|------------------------------------|----------------- sure what happens |
Db|------------------------------------|------------------ here but a pick -|
Ab|------------------------------------|----------------- slide should work]|
Eb|------------------------------------|------------------------------------|

     E E E E E E E  E      E  E  E  E  E  E  E  E      E E E E E E E  E      E  E  E  E  E  E  E  E
eb|---------------------|---------------------------|---------------------|---------------------------|
Bb|---------------------|---------------------------|---------------------|---------------------------|
Gb|--6-6-6-6-6-6-6--6---|--2--2--2--2--2--2--2--2---|--9-9-9-9-9-9-9--9---|--4--4--4--4--4--4--4--4---|
Db|--6-6-6-6-6-6-6--6---|--2--2--2--2--2--2--2--2---|--9-9-9-9-9-9-9--9---|--4--4--4--4--4--4--4--4---|
Ab|--4-4-4-4-4-4-4--4---|--0--0--0--0--0--0--0--0---|--7-7-7-7-7-7-7--7---|--2--2--2--2--2--2--2--2---|
Eb|---------------------|---------------------------|---------------------|---------------------------|
  |                     |                           |                     |                           |
  |  E E E E E E E  E   |  E  E  E  E  E  E  E  E   |  E E E E E E E  E   |  E  E  E  E  E  E  E  E   |
eb|---------------------|---------------------------|---------------------|---------------------------|
Bb|---------------------|---------------------------|---------------------|---------------------------|
Gb|--8-8-8-9-9-9-16-16--|--16-16-16-16-16-16-16-16--|--8-8-8-9-9-9-16-16--|--16-16-16-16-16/18-16-16--|
Db|--x-x-x-x-x-x-x--x---|--x--x--x--x--x--x--x--x---|--x-x-x-x-x-x-x--x---|--x--x--x--x--x--x--x--x---|
Ab|--6-6-6-7-7-7-14-14--|--14-14-14-14-14-14-14-14--|--6-6-6-7-7-7-14-14--|--14-14-14-14-14/16-14-14--|
Eb|---------------------|---------------------------|---------------------|---------------------------|

     E E E E E E E  E      E  E  E  E  E  E  E  E      E  E  E  E  E  E  E  E      E  E  E  E  E  E  Q
eb|---------------------|---------------------------|---------------------------|---------------------------|
Bb|---------------------|---------------------------|---------------------------|---------------------------|
Gb|--6-6-6-6-6-6-6--6---|--2--2--2--2--2--2--2--2---|--9--9--9--9--9--9--9--9---|--4--4--4--4--4--4--4------|
Db|--6-6-6-6-6-6-6--6---|--2--2--2--2--2--2--2--2---|--9--9--9--9--9--9--9--9---|--4--4--4--4--4--4--4------|
Ab|--4-4-4-4-4-4-4--4---|--0--0--0--0--0--0--0--0---|--7--7--7--7--7--7--7--7---|--2--2--2--2--2--2--2------|
Eb|---------------------|---------------------------|---------------------------|---------------------------|
  |                     |                           |                           |                           |
  |  E E E E E E E  E   |  E  E  E  E  E  E  E  E   |  E  E  E  E  E  E  E  E   |  E  E  E  E  E  E  Q      |
eb|---------------------|---------------------------|---------------------------|---------------------------|
Bb|---------------------|---------------------------|---------------------------|---------------------------|
Gb|--8-8-8-9-9-9-16-16--|--16-16-16-16-14-14-13-13--|--13-13-13-13-13-13-13-13--|--13/14-14\13-13\9--9------|
Db|--x-x-x-x-x-x-x--x---|--x--x--x--x--x--x--x--x---|--x--x--x--x--x--x--x--x---|--x--x--x--x--x--x--x------|
Ab|--6-6-6-7-7-7-14-14--|--14-14-14-14-12-12-11-11--|--11-11-11-11-11-11-11-11--|--11/12-12\11-11\7--7------|
Eb|---------------------|---------------------------|---------------------------|---------------------------|

   Gtr 1 & 2
     W                   +W                   +W                   +W
eb|--0-----------------|--------------------|--------------------|--------------------||
Bb|--0-----------------|--------------------|--------------------|--------------------||
Gb|--2-----------------|--------------------|--------------------|--------------------||
Db|--2-----------------|--------------------|--------------------|--------------------||
Ab|--0-----------------|--------------------|--------------------|--------------------||
Eb|--------------------|--------------------|--------------------|--------------------||
  |                    |                    |                    |                    ||
  |Gtr 3               |                    |                    |                    ||
  |  Q   H.            | +W                 | +W                 | +W                 ||
eb|--------------------|--------------------|--------------------|--------------------||
Bb|--------------------|--------------------|--------------------|--------------------||
Gb|--8--/9-------------|--------------------|--------------------|--------------------||
Db|--x---x-------------|--------------------|--------------------|--------------------||
Ab|--6--/7-------------|--------------------|--------------------|--------------------||
Eb|--------------------|--------------------|--------------------|--------------------||
  |                    |                    |                    |                    ||
  |Gtr 4               |                    |                    |                    ||
  |  E E E E E E E E   |  E E E E E E E E   |  E E E E E E E E   |  E E E E E E E E   ||
eb|----------0---------|----------0---------|----------0---------|----------0---------||
Bb|------4-----4---4---|------4-----4---4---|------4-----4---4---|------4-----4---4---||
Gb|----4---4-----4-----|----4---4-----4-----|----4---4-----4-----|----4---4-----4-----||
Db|--------------------|--------------------|--------------------|--------------------||
Ab|--0-----------------|--0-----------------|--0-----------------|--0-----------------||
Eb|--------------------|--------------------|--------------------|--------------------||


************************************

|  ~   Vibrato
| (n)  Ghost note
|  \   Slide down
|  x   Dead note
|  PM  Palm mute
|  /   Slide up
| [n]  Natural/artificial harmonic
|  S   Sixteenth note
|  E   Eighth note
|  Q   Quarter note
|  H   Half note
|  W   Whole note
|  .   Dotted note
| (N)  Rest
|  +   Add note value
|o o|  Reprise

************************************

            
            
Suggest correction
Creating personal tab
Creating personal tab
You can edit any tab online and save it as your Personal.

You can edit, replace or remove any tab part or add personal notes – all changes will be seen only by you.

Personal tabs can be accessed anytime from any device, even offline.
Learn more »
Give kudos to tab author, rate the tab!
1 2 3 4 5
comments
print report bad tab
guest
You may want to rate the tab now too:
select rating
Wanna post a correction for this tab? Suggest correction