Oops, an error
Loading. Please wait.

My Life Inside Your Heart Tab

version 2
version 2

Whole song

Interactive

7,402 views 1 this week
3 commentsread comments
1 2 3 4 5
excellent!
x 8
add to favorites
launch autoscroll
font size
0
reset
how to read this tab
guitar tuner
Tab Pro tools
  • play this tab
  • loop segment
  • change instrument
  • show fretboard
  • metronome
×
Best way to learn
"My Life Inside Your Heart"
Autoscroll
slow
fast
+/-
esc
set tempo
stop
Contributor
Difficulty
novice
Rise Against - My Life Inside Your Heart

Tab by Punkwolf

The other guitar tab here is pretty decent, but I thought it was a bit confusing, so I'm 
my version here.

Intro (Repeat the first part)
e|------------------------------------------------------|-----------------|
B|------------------------------------------------------|-----------------|
G|------------------------------------------------------|-----------------|
D|----5-4---4-----2-----4------5-4---4-----4-----4---4--|--2~-------------|
A|--7-----2---2-3---3-5---5--7-----2---2-3---3-5---5----|--2~-------------|
E|------------------------------------------------------|--0~--Pickslide--|

Verse
e|----------------------------------------------------------------|
B|----------------------------------------------------------------|
G|----.-.-.-.-.-.-.------------.-.-.-.-.-.-.-----------12-11-9-9--|
D|--2-2-2-2-2-2-2-2----------5-5-5-5-5-5-5-5----------------------|
A|--2-2-2-2-2-2-2-2-22223333-5-5-5-5-5-5-5-5-22223333--10--9-7-7--|
E|--0-0-0-0-0-0-0-0----------3-3-3-3-3-3-3-3----------------------|

e|-----------------------------------------------------------------|
B|-----------------------------------------------------------------|
G|----.-.-.-.-.-.-.------------.-.-.-.-.-.-.-----------12-11-9-11--|
D|--2-2-2-2-2-2-2-2----------5-5-5-5-5-5-5-5-----------------------|
A|--2-2-2-2-2-2-2-2-22223333-5-5-5-5-5-5-5-5-22223333--10--9-7--9--|
E|--0-0-0-0-0-0-0-0----------3-3-3-3-3-3-3-3-----------------------|

Pre-Chorus
e|-------------------------------------|
B|-------------------------------------|
G|--9-9-9-9-9-9-9-9-12-12-12-12-11-11--|
D|-------------------------------------|
A|--7-7-7-7-7-7-7-7-10-10-10-10--9--9--|
E|-------------------------------------|

Chorus (Play the first part 4 times)
e|--------------------------------|-----------------------------|
B|--------------------------------|-----------------------------|
G|--9----4-4-4-5-5-5-5-5-5-7-7-7--|--12-12-11-11-9~-------------|
D|--9-2~-------------5-5-5-7-7-7--|-----------------------------|
A|--7-2~-2-2-2-3-3-3-3-3-3-5-5-5--|--10-10--9--9-7~-------------|
E|----0~--------------------------|------------------Pickslide--|

Bridge
e|------------------------------------|
B|------------------------------------|
G|--7/9--7/9--7-11-9--7/9--7/9--7-11--|
D|------------------------------------|
A|--5/7--5/7--5--9-7--5/7--5/7--5--9--|
E|------------------------------------|

Play 2 times
e|-----------------------------------------------|
B|-----------------------------------------------|
G|-----------------------------------------------|
D|--........-........--.-.-.-.-.-.-.-.-........--|
A|--77777777-99999999-1010101010101010-55555555--|
E|-----------------------------------------------|

Play 3 times
e|-----------------------------------|
B|-----------------------------------|
G|-----------------------------------|
D|--2-2-2-2-4-4-4-4-5-5-5-5-7-7-7-7--|
A|--2-2-2-2-4-4-4-4-5-5-5-5-7-7-7-7--|
E|--0-0-0-0-2-2-2-2-3-3-3-3-5-5-5-5--|

e|------------------------------------------|
B|------------------------------------------|
G|----------------------------.---.---....--|
D|--2-2-2-2-4-4-4-4-5-5-5-5-7-7-7-7-7-7777--|
A|--2-2-2-2-4-4-4-4-5-5-5-5-7-7-7-7-7-7777--|
E|--0-0-0-0-2-2-2-2-3-3-3-3-5-5-5-5-5-5555--|

. - Palm mute
~ - Let ring

Song structure:
Intro
Verse
Pre-Chorus
Chorus
Verse
Pre-Chorus
Chorus
Bridge
Chorus
comments
print report bad tab
3 comments total.
0 reply
Razorhead wrote on July 24 2006, 02:46 am

Damn good tab.

0 reply
RiseAgainst77 wrote on March 29 2007, 04:13 pm

wow, thats amazing, i love it, great job

0 reply
ajondunnfarmer wrote on November 11 2010, 12:25 pm

sounds very good. all pretty close. some of the strumming patterns sound like you've halved them but other than thaht sounds prefect 4* :)

I want to post or [tab]
guest
You may want to rate the tab now too:
select rating
Please do not post tabs as comments. Select "correction" instead!