Oops, an error
Loading. Please wait.

Obstructed View Tab

3,850 views 6 this week
7 commentsread comments
1 2 3 4 5
x 7
add to favorites
launch autoscroll
font size
0
reset
how to read this tab
guitar tuner
Autoscroll
slow
fast
+/-
esc
set tempo
stop
Help us to improve Ultimate-Guitar.com Take our survey!
×
Author
----------------------------------------------------------------------------
                          Obstructed View
                            Rise Against
----------------------------------------------------------------------------
     This song is not very hard. Almost the entire song is a variant on the intro. For 
the whole song, both guitars play the same part, except where its noted. It's not 
but it's pretty accurate. So here it is.


Tabbed by:astro0930
Email:devils38matt@yahoo.com

Tuning:Standard

 |Intro|
e|----------------|
B|----------------|
G|-4~--7~--4~-----|
D|-4~--7~--4~--5~-|
A|-2~--5~--2~--5~-|
E|-------------3~-|

 |Verse| (Repeat 2x)
e|---------------------------------------------------------|
B|---------------------------------------------------------|
G|-44444444---77777777---44444444--------------------4444--|
D|-44444444---77777777---44444444---55555555---7777--4444--|
A|-22222222---55555555---22222222---55555555---7777--2222--|
E|----------------------------------33333333---5555--------|

 |Chorus| (Repeat 4x)
e|-------------------------------------|
B|-------------------------------------|
G|-------------------------------------|
D|-55555555--77777777--999999999999999-|
A|-55555555--77777777--999999999999999-|
E|-33333333--55555555--777777777777777-|

 |Verse 2| (Repeat 2x)    (After you play second time, finish with this)
e|-------------------------|-----------------------------------------------|
B|-------------------------|-----------------------------------------------|
G|-4x-----------4x---------|-4x-4x-4x-4x--7x-7x-7x-7x--4x-4x-4x-4x---------|
D|-4x--5x--12x--4x--5x--4x-|-4x-4x-4x-4x--7x-7x-7x-7x--4x-4x-4x-4x-5x5x5x5x|
A|-2x--5x--12x--2x--5x--4x-|-2x-2x-2x-2x--5x-5x-5x-5x--2x-2x-2x-2x-5x5x5x5x|
E|-----3x--10x------3x--2x-|---------------------------------------3x3x3x3x|

 |Guitar Two During Verse|
 (Listen to the song for the correct timing.)
e|-19-14~--14-12--19-14~--|
B|------------------------|
G|------------------------|
D|------------------------|
A|------------------------|
E|------------------------|


 |Chorus| (Repeat 4x)
e|--------------------------------------|
B|--------------------------------------|
G|--------------------------------------|
D|-55555555--77777777--9999999999999999-|
A|-55555555--77777777--9999999999999999-|
E|-33333333--55555555--7777777777777777-|

 |Verse| (Repeat 4x)
e|------------------------------------|
B|------------------------------------|
G|-4444444444444444-------------------|
D|-4444444444444444--5555555555555555-|
A|-2222222222222222--5555555555555555-|
E|-------------------3333333333333333-|

 |Solo|
e|-------------------------------------------------------------------------|
B|-1919191919191919\17\15\12-121212121212-15-17-15-1212--121212-22-22-22---|
G|-------------------------------------------------------------------------|
D|-------------------------------------------------------------------------|
A|-------------------------------------------------------------------------|
E|-------------------------------------------------------------------------|

e|--------------------------------------------|
B|-19-17-15-12-121212-15-17-15-19-17-15-12----|
G|--------------------------------------------|
D|--------------------------------------------|
A|--------------------------------------------|
E|--------------------------------------------|


 |Guitar Two During Solo| (Repeat 2x)
e|-------------------------------------------------------------------------|
B|-------------------------------------------------------------------------|
G|-44444444---77777777---44444444------------------------------------------|
D|-44444444---77777777---44444444---55555555---12121212---9999-------------|
A|-22222222---55555555---22222222---55555555---12121212---9999-------------|
E|----------------------------------33333333---10101010---7777-------------|

 |Chorus| (Repeat 4x)
e|-------------------------------------|
B|-------------------------------------|
G|-------------------------------------|
D|-55555555--77777777--999999999999999-|
A|-55555555--77777777--999999999999999-|
E|-33333333--55555555--777777777777777-|


| /  slide up
| \  slide down
| h  hammer-on
| p  pull-off
| ~  vibrato
| +  harmonic
| x  Mute note
===============================================================================
Suggest correction
comments
print report bad tab
7 comments total. Showing first comments.
0 reply
shugo449 530 Jun 29, 2007 05:18 PM

is thi snew?
I MUST KNOW THEY ARE M FAVORITE

-2 reply
shugo449 530 Jun 29, 2007 05:24 PM

o fro mmasters of horror
its onyl called "Obstructed"

+3 reply
ssjEasterBunny 251 Oct 16, 2007 02:47 PM

No, it's called Obstructed View. Nice tab.

guest
You may want to rate the tab now too:
select rating
Wanna post a correction for this tab? Suggest correction