Oops, an error
Loading. Please wait.

Obstructed View tab

version 2
version 2

Whole song

16 views 1 this week
no commentswrite comment
1 2 3 4 5
2 more votes to show rating
add to favorites
×
Save as Personal and add changes to this tab that will be seen only by you. Learn more ›
×
You can save this tab as Personal to edit and correct it or add notes. All changes will be seen only by you. Learn more »
launch autoscroll
font size
0
reset
how to read this tab
guitar tuner
edit
Autoscroll
slow
fast
+/-
esc
set tempo
stop
Artist: Rise Against
Song: Obstructed View
Album: Siren Song of the Counter Culture (Bonus Track) (2004)

- Obstructed View is the bonus track off of the iTunes release of Siren Song of
the Counter Culture.
- The track is also included on the This Is Noise EP (2008) and the Rise Against
compilation album Long Forgotten Songs (2013).

Guitar 1 (Eb Ab Db Gb Bb eb) - 'Tim McIlrath - Distortion, Rhythm'
Guitar 2 (Eb Ab Db Gb Bb eb) - 'Chris Chasse - Distortion, Lead'

[Verse 1]
   Gtr 1 & 2
    1/4          4/4
      S S S S     +H.                      S S S S     +H.                      S S S S
eb||------------|------------------------------------|------------------------------------|
Bb||------------|------------------------------------|------------------------------------|
Gb||------------|------------------------------------|------------------------------------|
Db||--------5---|--------------------------5-5-5-8---|--------------------------------5---|
Ab||--8-8-8-3---|--------------------------3-3-3-6---|--------------------------8-8-8-3---|
Eb||--6-6-6-----|------------------------------------|--------------------------6-6-6-----|

    +H.                      S S S S     +S S E   S S S S E   E   S S S S
eb|------------------------------------|------------------------------------|
Bb|------------------------------------|------------------------------------|
Gb|------------------------------------|------------------------------------|
Db|------------------------------------|------------------8---8---8-8-8-5---|
Ab|--------------------------8-8-8-6---|----6-6---6-6-6-6-6---6---6-6-6-3---|
Eb|--------------------------6-6-6-4---|----4-4---4-4-4-4-------------------|

    +S S E   S S S E   S E   S S S S     +S S E   S S S E   S E   S S S S
eb|------------------------------------|------------------------------------|
Bb|------------------------------------|------------------------------------|
Gb|------------------------------------|------------------------------------|
Db|----5-5---5-5-5-5---5-5---5-5-5-8---|----8-8---8-8-8-8---8-8---8-8-8-5---|
Ab|----3-3---3-3-3-3---3-3---3-3-3-6---|----6-6---6-6-6-6---6-6---6-6-6-3---|
Eb|------------------------------------|------------------------------------|

    +S S E   S S S E   S E   S S S S     +S S E   S S S E   S E   S S S S
eb|------------------------------------|------------------------------------|
Bb|------------------------------------|------------------------------------|
Gb|------------------------------------|------------------------------------|
Db|----5-5---5-5-5-5---5-5---5-5-5-----|----------------8---8-8---8-8-8-5---|
Ab|----3-3---3-3-3-3---3-3---3-3-3-6---|----6-6---6-6-6-6---6-6---6-6-6-3---|
Eb|--------------------------------4---|----4-4---4-4-4---------------------|

    +S S E   S S S E   S E   S S S S     +S S E   S S S E   S E   S S S S
eb|------------------------------------|------------------------------------|
Bb|------------------------------------|------------------------------------|
Gb|------------------------------------|------------------------------------|
Db|----5-5---5-5-5-5---5-5---5-5-5-8---|----8-8---8-8-8-8---8-8---8-8-8-5---|
Ab|----3-3---3-3-3-3---3-3---3-3-3-6---|----6-6---6-6-6-6---6-6---6-6-6-3---|
Eb|------------------------------------|------------------------------------|

    +S S E   S S S E   S E   S S S S     +S S E   S S S E   S E   S S S S
eb|------------------------------------|------------------------------------|
Bb|------------------------------------|------------------------------------|
Gb|------------------------------------|------------------------------------|
Db|----5-5---5-5-5-5---5-5---5-5-5-----|----------------8---8-8---8-8-8-8---|
Ab|----3-3---3-3-3-3---3-3---3-3-3-6---|----6-6---6-6-6-6---6-6---6-6-6-6---|
Eb|--------------------------------4---|----4-4---4-4-4---------------------|

     S S S S S S S S S S S S S S S S
eb|------------------------------------|
Bb|------------------------------------|
Gb|------------------------------------|
Db|--5-5-5-5-5-5-5-5-5-5-5-5-5-5-5-5---|
Ab|--3-3-3-3-3-3-3-3-3-3-3-3-3-3-3-3---|
Eb|------------------------------------|
PM|  . . . . . . . . . . . . . . . .   |


[Chorus]
   Gtr 1 & 2
     E   S E   S E   E   S E   S E        E   S E   S E   E   S E   S E     (x2)
eb|------------------------------------|------------------------------------|
Bb|o-----------------------------------|-----------------------------------o|
Gb|------------------------------------|------------------------------------|
Db|------------------------------------|--5---5-5---5-5---5---5-5---5-5-----|
Ab|o-6---6-6---6-6---8---8-8---8-8-----|--3---3-3---3-3---3---3-3---3-3----o|
Eb|--4---4-4---4-4---6---6-6---6-6-----|------------------------------------|

     E   S E   S E   S E   E.    E        E    S  E    S  E    E    S  E    S  E     
eb|------------------------------------|---------------------------------------------|
Bb|------------------------------------|---------------------------------------------|
Gb|------------------8/10--8-----10----|--10---10-10---10-10---10---10-10---10-10----|
Db|------------------x-x---x-----x-----|--x----x--x----x--x----x----x--x----x--x-----|
Ab|--6---6-6---6-6---6/8---6-----8-----|--8----8--8----8--8----8----8--8----8--8-----|
Eb|--4---4-4---4-4---------------------|---------------------------------------------|

     E   S E   S E   E   S E   S E        S S S S S S S S S(E.)   S S S S
eb|------------------------------------|------------------------------------|
Bb|------------------------------------|------------------------------------|
Gb|------------------------------------|------------------------------------|
Db|------------------8-----------------|--5-5-5-5-5-5-5-5-5-------------5---|
Ab|--6---6-6---6-6---6---8-8---8-8-----|--3-3-3-3-3-3-3-3-3-------8-8-8-3---|
Eb|--4---4-4---4-4---6---6-6---6-6-----|--------------------------6-6-6-----|
PM|                                    |  . . . . . . . .         . . .     |


[Verse 2]
   Gtr 1 & 2
    (H.)                     S S S S     (H.)                     S S S S
eb|------------------------------------|------------------------------------|
Bb|------------------------------------|------------------------------------|
Gb|------------------------------------|------------------------------------|
Db|--------------------------------8---|--------------------------------5---|
Ab|--------------------------6-6-6-6---|--------------------------8-8-8-3---|
Eb|--------------------------4-4-4-----|--------------------------6-6-6-----|
PM|                          . . .     |                          . . .     |

    (H.)                     S S S S     +S S E   S S E   E   E   S S S S
eb|------------------------------------|------------------------------------|
Bb|------------------------------------|------------------------------------|
Gb|------------------------------------|------------------------------------|
Db|------------------------------------|------------------8---8---------5---|
Ab|--------------------------8-8-8-6---|----6-6---6-6-6---6---6---8-8-8-3---|
Eb|--------------------------6-6-6-4---|----4-4---4-4-4-----------6-6-6-----|
PM|                                    |                          . . .     |

    +E   S(E.)   S(E.)   S(S)S S S S     +E   S(E.)   S(E.)   S(S)S S S S
eb|------------------------------------|------------------------------------|
Bb|------------------------------------|------------------------------------|
Gb|------------------------------------|------------------------------------|
Db|------5-------5-------5---------8---|------8-------8-------8---------5---|
Ab|------3-------3-------3---6-6-6-6---|------6-------6-------6---8-8-8-3---|
Eb|--------------------------4-4-4-----|--------------------------6-6-6-----|
PM|                          . . .     |                          . . .     |

    +E   S(E.)   S(E.)   S(S)S S S S     +S S E   S S S S E   E   S S S S
eb|------------------------------------|------------------------------------|
Bb|------------------------------------|------------------------------------|
Gb|------------------------------------|------------------------------------|
Db|------5-------5-------5-------------|------------------8---8---------5---|
Ab|------3-------3-------3---8-8-8-6---|----6-6---6-6-6-6-6---6---8-8-8-3---|
Eb|--------------------------6-6-6-4---|----4-4---4-4-4-4---------6-6-6-----|
PM|                                    |                          . . .     |

    +S S E   S S S S S(E.)   S E.
eb|------------------------------------|
Bb|------------------------------------|
Gb|------------------------------------|
Db|----5-5---5-5-5-5-5-------5-3-------|
Ab|----3-3---3-3-3-3-3-------3-1-------|
Eb|------------------------------------|
PM|          . . . .                   |


[Chorus 2]
   Gtr 1 & 2
     E   S E   S E   E   S E   S E        E   S E   S E   E   S E   S E     (x2)
eb|------------------------------------|------------------------------------|
Bb|o-----------------------------------|-----------------------------------o|
Gb|------------------------------------|------------------------------------|
Db|------------------------------------|--5---5-5---5-5---5---5-5---5-5-----|
Ab|o-6---6-6---6-6---8---8-8---8-8-----|--3---3-3---3-3---3---3-3---3-3----o|
Eb|--4---4-4---4-4---6---6-6---6-6-----|------------------------------------|

     E   S E   S E   S E   E.    E        E    S  E    S  E    E    S  E    S  E     
eb|------------------------------------|---------------------------------------------|
Bb|------------------------------------|---------------------------------------------|
Gb|------------------8/10--8-----10----|--10---10-10---10-10---10---10-10---10-10----|
Db|------------------x-x---x-----x-----|--x----x--x----x--x----x----x--x----x--x-----|
Ab|--6---6-6---6-6---6/8---6-----8-----|--8----8--8----8--8----8----8--8----8--8-----|
Eb|--4---4-4---4-4---------------------|---------------------------------------------|

     E   S E   S E   E   S E   S E        S S S S S S S S S(E.)  (Q)
eb|------------------------------------|------------------------------------|
Bb|------------------------------------|------------------------------------|
Gb|------------------------------------|------------------------------------|
Db|------------------8-----------------|--5-5-5-5-5-5-5-5-5-----------------|
Ab|--6---6-6---6-6---6---8-8---8-8-----|--3-3-3-3-3-3-3-3-3-----------------|
Eb|--4---4-4---4-4---6---6-6---6-6-----|------------------------------------|
PM|                                    |  . . . . . . . .                   |


[Bridge]
   Gtr 1 & 2
     S S S S S S S S S S S S S S S S      S S S S S S S S S S S S S S S S
eb|------------------------------------|------------------------------------|
Bb|------------------------------------|------------------------------------|
Gb|------------------------------------|------------------------------------|
Db|--5-5-5-5-5-5-5-5-5-5-5-5-5-5-5-5---|--5-5-5-5-5-5-5-5-5-5-5-5-5-5-5-5---|
Ab|--3-3-3-3-3-3-3-3-3-3-3-3-3-3-3-3---|--3-3-3-3-3-3-3-3-3-3-3-3-3-3-3-3---|
Eb|------------------------------------|------------------------------------|
PM|  . . . . . . . . . . . . . . . .   |  . . . . . . . . . . . . . . . .   |

     S S S S S S S S S S S S S S S S      S S S S S S S S S S S S S S S S
eb|------------------------------------|------------------------------------|
Bb|------------------------------------|------------------------------------|
Gb|------------------------------------|------------------------------------|
Db|------------------------------------|------------------------------------|
Ab|--6-6-6-6-6-6-6-6-6-6-6-6-6-6-6-6---|--6-6-6-6-6-6-6-6-6-6-6-6-6-6-6-6---|
Eb|--4-4-4-4-4-4-4-4-4-4-4-4-4-4-4-4---|--4-4-4-4-4-4-4-4-4-4-4-4-4-4-4-4---|
PM|  . . . . . . . . . . . . . . . .   |  . . . . . . . . . . . . . . . .   |

     S S S S S S S S S S S S S S S S      S S S S S S S S S S S S S S S S
eb|------------------------------------|------------------------------------|
Bb|------------------------------------|------------------------------------|
Gb|------------------------------------|------------------------------------|
Db|--5-5-5-5-5-5-5-5-5-5-5-5-5-5-5-5---|--5-5-5-5-5-5-5-5-5-5-5-5-5-5-5-5---|
Ab|--3-3-3-3-3-3-3-3-3-3-3-3-3-3-3-3---|--3-3-3-3-3-3-3-3-3-3-3-3-3-3-3-3---|
Eb|------------------------------------|------------------------------------|
PM|  . . . . . . . . . . . . . . . .   |  . . . . . . . . . . . . . . . .   |

     S S S S S S S S S S S S S S S S      S S S S S S S S S S S S S S S S
eb|------------------------------------|------------------------------------|
Bb|------------------------------------|------------------------------------|
Gb|------------------------------------|------------------------------------|
Db|------------------------------------|--8-8-8-8-8-8-8-8-------------------|
Ab|--6-6-6-6-6-6-6-6-6-6-6-6-6-6-6-6---|--6-6-6-6-6-6-6-6-8-8-8-8-8-8-8-8---|
Eb|--4-4-4-4-4-4-4-4-4-4-4-4-4-4-4-4---|------------------6-6-6-6-6-6-6-6---|
PM|  . . . . . . . . . . . . . . . .   |  . . . . . . . . . . . . . . . .   |

     S S S S S S S S S S S S S S S S      S S S S S S S S S S S S S S S S
eb|------------------------------------|------------------------------------|
Bb|------------------------------------|------------------------------------|
Gb|------------------------------------|------------------------------------|
Db|--5-5-5-5-5-5-5-5-5-5-5-5-5-5-5-5---|--5-5-5-5-5-5-5-5-5-5-5-5-5-5-5-5---|
Ab|--3-3-3-3-3-3-3-3-3-3-3-3-3-3-3-3---|--3-3-3-3-3-3-3-3-3-3-3-3-3-3-3-3---|
Eb|------------------------------------|------------------------------------|
PM|  . . . . . . . . . . . . . . . .   |  . . . . . . . . . . . . . . . .   |

     S S S S S S S S S S S S S S S S      S S S S S S S S S S S S S S S S
eb|------------------------------------|------------------------------------|
Bb|------------------------------------|------------------------------------|
Gb|------------------------------------|------------------------------------|
Db|------------------------------------|------------------------------------|
Ab|--6-6-6-6-6-6-6-6-6-6-6-6-6-6-6-6---|--6-6-6-6-6-6-6-6-6-6-6-6-6-6-6-6---|
Eb|--4-4-4-4-4-4-4-4-4-4-4-4-4-4-4-4---|--4-4-4-4-4-4-4-4-4-4-4-4-4-4-4-4---|
PM|  . . . . . . . . . . . . . . . .   |  . . . . . . . . . . . . . . . .   |

     S S S S S S S S S S S S S S S S      S S S S S S S S S S S S S S S S
eb|------------------------------------|------------------------------------|
Bb|------------------------------------|------------------------------------|
Gb|------------------------------------|------------------------------------|
Db|--5-5-5-5-5-5-5-5-5-5-5-5-5-5-5-5---|--5-5-5-5-5-5-5-5-5-5-5-5-5-5-5-5---|
Ab|--3-3-3-3-3-3-3-3-3-3-3-3-3-3-3-3---|--3-3-3-3-3-3-3-3-3-3-3-3-3-3-3-3---|
Eb|------------------------------------|------------------------------------|
PM|  . . . . . . . . . . . . . . . .   |  . . . . . . . . . . . . . . . .   |

     S S S S S S S S S S S S S S S S      S S S S S S S S S S S S S S S S
eb|------------------------------------|------------------------------------|
Bb|------------------------------------|------------------------------------|
Gb|------------------------------------|------------------------------------|
Db|------------------------------------|------------------------------------|
Ab|--6-6-6-6-6-6-6-6-6-6-6-6-6-6-6-6---|--8-8-8-8-8-8-8-8-8-8-8-8-8-8-8-8---|
Eb|--4-4-4-4-4-4-4-4-4-4-4-4-4-4-4-4---|--6-6-6-6-6-6-6-6-6-6-6-6-6-6-6-6---|
PM|  . . . . . . . . . . . . . . . .   |  . . . . . . . . . . . . . . . .   |


[Guitar Solo]
   Gtr 1
     E     E     S S E     E     E     S S E          E   E   S S E   E   E   S S E
eb|------------------------------------------------|------------------------------------|
Bb|------------------------------------------------|------------------------------------|
Gb|------------------------------------------------|------------------------------------|
Db|--5-----5-----5-5-5-----5-----5-----5-5-5-------|--5---5---5-5-5---5---5---5-5-5-----|
Ab|--3-----3-----3-3-3-----3-----3-----3-3-3-------|--3---3---3-3-3---3---3---3-3-3-----|
Eb|------------------------------------------------|------------------------------------|
  |                                                |                                    |
  |Gtr 2                                           |                                    |
  |  E.      E.      E     E.      E.      E       |  E.    E.    E   H                 |
eb|--15------15------15----15------15------15------|------------------------------------|
Bb|--18b20---18b20---18b20-18b20---18b20---18b20---|--18b20r18----16--------------------|
Gb|------------------------------------------------|------------------17~---------------|
Db|------------------------------------------------|------------------------------------|
Ab|------------------------------------------------|------------------------------------|
Eb|------------------------------------------------|------------------------------------|

     E   E   S S E   E   E    S S E          E   E   S  S  E     E      E    S S E
eb|---------------------------------------|--------------------------------------------|
Bb|---------------------------------------|--------------------------------------------|
Gb|---------------------------------------|--------------------------------------------|
Db|---------------------------------------|--8---8---8--8--8---------------------------|
Ab|--6---6---6-6-6---6---6----6-6-6-------|--6---6---6--6--6-----8------8----8-8-8-----|
Eb|--4---4---4-4-4---4---4----4-4-4-------|----------------------6------6----6-6-6-----|
  |                                       |                                            |
  |                  |--3--|              |                                            |
  |  H               E  E  E  E   E       |  Q.            S  S  S.    S. S  Q         |
eb|---------------------------------------|--------------------------------------------|
Bb|------------------------16h18--18b20=--|-r18------------18p16-18b20r18p16-----------|
Gb|--17~-------------15h17----------------|----------------------------------17~-------|
Db|---------------------------------------|--------------------------------------------|
Ab|---------------------------------------|--------------------------------------------|
Eb|---------------------------------------|--------------------------------------------|

     E   E   S S E   E   E   S S E        E   E   S S E   E   E   S S E
eb|------------------------------------|------------------------------------|
Bb|------------------------------------|------------------------------------|
Gb|------------------------------------|------------------------------------|
Db|--5---5---5-5-5---5---5---5-5-5-----|--5---5---5-5-5---5---5---5-5-5-----|
Ab|--3---3---3-3-3---3---3---3-3-3-----|--3---3---3-3-3---3---3---3-3-3-----|
Eb|------------------------------------|------------------------------------|
  |                                    |                                    |
  |  E.    E.    E   E.    E.    E     |  E.    E.    E   H                 |
eb|--15----15----15--18----18----------|------------------------------------|
Bb|--18b20=20====20=======r18----18----|--18b20r18----16--------------------|
Gb|------------------------------------|------------------17~---------------|
Db|------------------------------------|------------------------------------|
Ab|------------------------------------|------------------------------------|
Eb|------------------------------------|------------------------------------|

     E    E   S  S E   E   E   S S E        E   E   S S E   E   E   S S E
eb|--------------------------------------|------------------------------------|
Bb|--------------------------------------|------------------------------------|
Gb|--------------------------------------|------------------------------------|
Db|--------------------------------------|--8---8---8-8-8---------------------|
Ab|--6----6---6--6-6---6---6---6-6-6-----|--6---6---6-6-6---8---8---8-8-8-----|
Eb|--4----4---4--4-4---4---4---4-4-4-----|------------------6---6---6-6-6-----|
  |                                      |                                    |
  |  S  E.    S  E.    E.    E.    E     |  H               E.    E.    E     |
eb|--------------------------------------|------------------------------------|
Bb|-----------18h20----18b20r18----16----|--16h18-----------18b20r18----16----|
Gb|--15h17-------------------------------|------------------------------------|
Db|--------------------------------------|------------------------------------|
Ab|--------------------------------------|------------------------------------|
Eb|--------------------------------------|------------------------------------|

     H.                      S E.
eb|------------------------------------|
Bb|------------------------------------|
Gb|------------------------------------|
Db|--5-----------------------5-3-------|
Ab|--3-----------------------3-1-------|
Eb|------------------------------------|
  |                                    |
  |  W                                 |
eb|------------------------------------|
Bb|------------------------------------|
Gb|--17~-------------------------------|
Db|------------------------------------|
Ab|------------------------------------|
Eb|------------------------------------|


[Chorus 3]
   Gtr 1 & 2
     E   S E   S E   E   S E   S E        E   S E   S E   E   S E   S E     (x2)
eb|------------------------------------|------------------------------------|
Bb|o-----------------------------------|-----------------------------------o|
Gb|------------------------------------|------------------------------------|
Db|------------------------------------|--5---5-5---5-5---5---5-5---5-5-----|
Ab|o-6---6-6---6-6---8---8-8---8-8-----|--3---3-3---3-3---3---3-3---3-3----o|
Eb|--4---4-4---4-4---6---6-6---6-6-----|------------------------------------|

     E   S E   S E   S E   E.    E        E    S  E    S  E    E    S  E    S  E     
eb|------------------------------------|---------------------------------------------|
Bb|------------------------------------|---------------------------------------------|
Gb|------------------8/10--8-----10----|--10---10-10---10-10---10---10-10---10-10----|
Db|------------------x-x---x-----x-----|--x----x--x----x--x----x----x--x----x--x-----|
Ab|--6---6-6---6-6---6/8---6-----8-----|--8----8--8----8--8----8----8--8----8--8-----|
Eb|--4---4-4---4-4---------------------|---------------------------------------------|

     E    S  E    S  E    E    S  E    S  E         S S S S S S S S S
eb|----------------------------------------------|------------------------------------||
Bb|----------------------------------------------|------------------------------------||
Gb|--13---13-13---13-13---12---10-10---10-10-----|------------------------------------||
Db|--x----x--x----x--x----x----x--x----x--x------|--5-5-5-5-5-5-5-5-5-----------------||
Ab|--11---11-11---11-11---10---8--8----8--8------|--3-3-3-3-3-3-3-3-3-----------------||
Eb|----------------------------------------------|------------------------------------||
PM|                                              |  . . . . . . . .                   ||

************************************

|  ~   Vibrato
|  x   Dead note
|  PM  Palm mute
|  h   Hammer-on
|  p   Pull-off
|  /   Slide up
|  b   Bend
|  r   Release bend
|  =   Extend note into next
|  S   Sixteenth note
|  E   Eighth note
|  Q   Quarter note
|  H   Half note
|  W   Whole note
|  .   Dotted note
| (N)  Rest
|  +   Add note value
|o o|  Reprise

************************************

            
            
Suggest correction
Creating personal tab
Creating personal tab
You can edit any tab online and save it as your Personal.

You can edit, replace or remove any tab part or add personal notes – all changes will be seen only by you.

Personal tabs can be accessed anytime from any device, even offline.
Learn more »
Give kudos to tab author, rate the tab!
1 2 3 4 5
comments
print report bad tab
guest
You may want to rate the tab now too:
select rating
Wanna post a correction for this tab? Suggest correction