Oops, an error
Loading. Please wait.

Paper Wings Tab

version 1
version 1

Acoustic

Whole song

14,856 views 9 this week
3 commentsread comments
1 2 3 4 5
x 5
add to favorites
launch autoscroll
font size
0
reset
how to read this tab
guitar tuner
Autoscroll
slow
fast
+/-
esc
set tempo
stop
Help us to improve Ultimate-Guitar.com Take our survey!
×
Author
Song: Paper Wings (Acoustic)
Band: Rise Agaisnt
Tuning: Eb

Tabbed By: Rjhari10 (Rjhari10@yahoo.com)

*Note: From what I am aware there is no recorded acoustic version of this
amazing song. So I decided to try my best to express my acoustic version. Enjoy.

Intro/ Chorus:
eb|-------------------------------------------|
Bb|o------------------------------------------|
Gb|---99-9-99---99-9-99-------------88-8-88---|
Db|---99-9-99---99-9-99---99-9-99---66-6-66---|
Ab|o--77-7-77---77-7-77---66-6-66-------------|
Eb|-------------------------------------------|

eb|-------------------------------------------|
Bb|------------------------------------------o|
Gb|---66-6-66---66-6-66-----------------------|
Db|---66-6-66---66-6-66---77-7-77---77-7-77---|x2
Ab|---44-4-44---44-4-44---77-7-77---77-7-77--o|
Eb|-----------------------55-5-55---55-5-55---|


Verse:
eb|-----------------------------------------------|
Bb|-----------------------------------------------|
Gb|---6-6-xxx---------------4-4-4/6---2-222-222---|
Db|---6-6-xxx---2-222-222---4-4-4/6---2-222-222---|
Ab|---4-4-xxx---2-222-222---2-2-2/4---0-000-000---|
Eb|-------------0-000-000-------------------------|

eb|-----------------------------------------------|
Bb|-----------------------------------------------|
Gb|---6-6-xxx---------------4-4-4-4---2-222-222---|
Db|---6-6-xxx---2-222-222---4-4-4-4---2-222-222---|
Ab|---4-4-xxx---2-222-222---2-2-2-4---0-000-000---|
Eb|-------------0-020-000-------------------------|

eb|-----------------------------------------------|
Bb|-----------------------------------------------|
Gb|---6-6-xxx---------------4-4-4/6---2-222-222---|
Db|---6-6-xxx---2-222-222---4-4-4/6---2-222-222---|
Ab|---4-4-xxx---2-222-222---2-2-2/4---0-000-000---|
Eb|-------------0-000-000-------------------------|

eb|----------------------------------------------------------|
Bb|----------------------------------------------------------|
Gb|---6-6-xxx---------------44-444-444-444---22-222-222-222--|
Db|---6-6-xxx---2-222-222---44-444-444-444---22-222-222-222--|
Ab|---4-4-xxx---2-222-222---22-222-222-222---00-000-000-000--|
Eb|-------------0-000-000------------------------------------|

eb|------------------------------------|
Bb|------------------------------------|
Gb|---44-444-444-444---22-222-222-222--|
Db|---44-444-444-444---22-222-222-222--|
Ab|---22-222-222-222---00-000-000-000--|
Eb|------------------------------------|


Intro/ Chorus

Verse

Intro/ Chorus


Outro Chorus:
eb|----------------------------|
Bb|----------------------------|
Gb|---9~--------8~---6~--------|
Db|---9~---9~---6~---6~---7~---|x2
Ab|---7~---6~--------4~---7~---|
Eb|-----------------------5~---|


Key:
~ Let Ring
/ Slide Down



Lyrics:

[Verse]
One last thing I beg you please
Just before you go
I've watched you fly on paper wings
Half-way 'round the world Until they
Burnt up in the atmosphere
Sent you spiraling down
Landing somewhere far from here
With no one else around
To catch you falling down
And I'm looking at you now

[Chorus]
And I can't tell if you're laughing
Between each smile theres a tear in your eye
Theres a train leaving town in an hour
Its not waiting for you
And neither am I

[Verse]
Swing for the fences son
They must have told you once
There was a conversation
You took nothing from So raise your
Glass now and celebrate
Exactly what you've done
Just put off another day of
Knowing where you're from
Can catch up with yourself
If you want

[Chorus]
And I can't tell if you're laughing
Between each smile theres a tear in your eye
Theres a train leaving town in an hour
Its not waiting for you
And neither am I

And I can't tell if you're laughing
Between each smile theres a tear in your eye
Theres a train leaving town in an hour
Its not waiting for you
And neither am I
Suggest correction
comments
print report bad tab
3 comments total.
0 reply
slpbasketballer 91 Aug 08, 2009 05:01 PM

Well done. This is exactly how I play it on acoustic.

0 reply
slyderturtle 31 Jan 07, 2010 01:37 AM

this isnt any different from the non acoustic, except it doesnt have a second guitar or solo...
It is accurate though.

0 reply
ciano17 10 Mar 08, 2010 11:00 PM

there is an acoustic version man its under the name of the guitarist though. Chris Chasse

guest
You may want to rate the tab now too:
select rating
Wanna post a correction for this tab? Suggest correction