Oops, an error
Loading. Please wait.
We have an official Paper Wings tab made by UG professional guitarists. Check out the tab »
×

Paper Wings solo tab

version 2
version 2

Solo

Whole song

25 views 1 this week
no commentswrite comment
1 2 3 4 5
3 more votes to show rating
add to favorites
×
Save as Personal and add changes to this tab that will be seen only by you. Learn more ›
×
You can save this tab as Personal to edit and correct it or add notes. All changes will be seen only by you. Learn more »
launch autoscroll
font size
0
reset
how to read this tab
guitar tuner
edit
Autoscroll
slow
fast
+/-
esc
set tempo
stop
Artist: Rise Against
Song: Paper Wings (Guitar Solo)
Album: Siren Song Of The Counter Culture (2004)

Guitar 1 (Eb Ab Db Gb Bb eb) - 'Tim McIlrath - Distortion'

[Solo starts at 2:10]
    4/4
      Q       E   E   E   E   E   E       +E   E   E   Q        E   E   E 
eb|------------------------------------|-------------------------------------|
Bb|--7---------------------------------|--------------7----------------------| [Each 11 here is a 9 bent up
Gb|--9b11----11--11--11-r9---8---9-----|-(9)--9---9---9b11----r9---8---9-----|          to an 11]
Db|------------------------------------|-------------------------------------| [Only let the 7 ring out when
Ab|------------------------------------|-------------------------------------|   the 9 is bent to the 11]
Eb|------------------------------------|-------------------------------------|

    +E   E   E   E   E    E   E   E       +E   E   E   Q       E   E   E 
eb|-------------------------------------|------------------------------------|
Bb|-------------------------------------|------------------------------12\---|
Gb|-(9)--9---9---9---9b11r9---8---9-----|-(9)--9---9---8-------8---8---9\----|
Db|-------------------------------------|------------------------------------|
Ab|-------------------------------------|------------------------------------|
Eb|-------------------------------------|------------------------------------|

    (Q)      Q       S S E   S S E        S S E   S S E   S S E  (E)  E 
eb|------------------------------------|------------------------------0-----|
Bb|----------0-------------------------|------------------------------10----| [You can play the 3 note phrases
Gb|------------------8h9h11--8h9h11----|--8h9h11--8h9h11--8h9h11------------|    as triplets. It's a little 
Db|------------------------------------|------------------------------------| ambiguous on the original track]
Ab|------------------------------------|------------------------------------|
Eb|------------------------------------|------------------------------------|

    +E   E   E   E   E   E   E   E       +E   E   E   E   E   E   E   E 
eb|-(0)--0---0---0---0---0---0---0-----|-(0)--0---0---0---0---0---0---------|
Bb|-(10)-10--10--9---9---9---9---12----|-(12)-12--12--12--12--12--12--------|
Gb|------------------------------------|------------------------------9-----|
Db|------------------------------------|------------------------------------|
Ab|------------------------------------|------------------------------------|
Eb|------------------------------------|------------------------------------|

    +E   E   E   E   E    E   E   E       +E   E   E   E   E    E   E   E 
eb|-------------------------------------|-------------------------------------|
Bb|-------------------------------------|-------------------------------------|
Gb|-(9)--9---9---9---9b11r9---8---8-----|-(8)----------8---9b11r9---8---8-----|
Db|-------------------------------------|------9---9--------------------------|
Ab|-------------------------------------|------9---9--------------------------|
Eb|-------------------------------------|-------------------------------------|

     E   E   E   E   E   E   E   E        E   E   E   E   E   Q       E 
eb|------------------------------------|------------------------------------|
Bb|------------------0---0---0---0-----|--0---0---0---0---0---0-------0-----|
Gb|-(8)--9---9---9---6---6---6---8-----|--8---8---8---8---8---6-------1-----|
Db|------------------7---7---7---9-----|--9---9---9---9---9---7-------2-----|
Ab|------------------------------------|------------------------------------|
Eb|------------------------------------|------------------------------------|

    +H               E   E   E   E        E   E   E   E   E   E   E   E 
eb|------------------7---0---0---4-----|--0---0---2---0---7---0---0---4-----|
Bb|-(0)--------------------------------|------------------------------------|
Gb|-(1)--------------------------------|------------------------------------|
Db|-(2)--------------------------------|------------------------------------|
Ab|------------------------------------|------------------------------------|
Eb|------------------------------------|------------------------------------|

     E   E   E   E   E   E   E   E        E   E   E   E   E   E   E   E 
eb|--0---0---2---0---7---0---0---4-----|--0---0---2---0---4---5---4---7-----|
Bb|------------------------------------|------------------------------5-----|
Gb|------------------------------------|------------------------------------|
Db|------------------------------------|------------------------------------|
Ab|------------------------------------|------------------------------------|
Eb|------------------------------------|------------------------------------|

    +E   E   Q       E   E   Q            E   E   E   E   E   E   Q 
eb|-(7)--7---7-------7---7---7---------|--7---7---4---5---4-----------------|
Bb|-(5)--5---5-------5---5---5---------|--5---5---------------5---5---------|
Gb|------------------------------------|------------------------------------|
Db|------------------------------------|------------------------------------|
Ab|------------------------------------|------------------------------------|
Eb|------------------------------------|------------------------------------|

     -
eb|------------------------------------|
Bb|--0---------------------------------|
Gb|--x---------------------------------|
Db|--2---------------------------------|
Ab|------------------------------------|
Eb|------------------------------------|


************************************

| (n)  Ghost note
|  x   Dead note
|  h   Hammer-on
|  p   Pull-off
|  b   Bend
|  /   Slide up
|  \   Slide down
|  r   Release bend
|  S   Sixteenth note
|  E   Eighth note
|  Q   Quarter note
|  H   Half note
| (N)  Rest
|  +   Add note value

************************************

            
            
Suggest correction
Creating personal tab
Creating personal tab
You can edit any tab online and save it as your Personal.

You can edit, replace or remove any tab part or add personal notes – all changes will be seen only by you.

Personal tabs can be accessed anytime from any device, even offline.
Learn more »
Give kudos to tab author, rate the tab!
1 2 3 4 5
comments
print report bad tab
guest
You may want to rate the tab now too:
select rating
Wanna post a correction for this tab? Suggest correction