Oops, an error
Loading. Please wait.

Paper Wings Bass Tab

version 2
version 2

Whole song

2,846 views 1 this week
1 commentread comment
1 2 3 4 5
1 last vote to show rating
add to favorites
launch autoscroll
font size
0
reset
guitar tuner
Autoscroll
slow
fast
+/-
esc
set tempo
stop
Help us to improve Ultimate-Guitar.com Take our survey!
×
Author
Tuning
D A D G B E
Original Tabbing: Blake Rakoczi
All I did was transcribe it to Drop D so it's more convenient.

Intro - Note:  Wait for the guitar to play its riff once.
G|---------------------------------------------------------------------|
D|---------------------------------------------------------------------|
A|-6-6-6-6-6-6-6-6--5-5-5-5----------3-3-3-3-3-3-3-3-------------------| x2
D|--------------------------5-5-5-5-------------------6-6-6-6-6-6-6-6--|

First Verse
G|---------------------------------------------------------------------|
D|------------------------------------------------------------6-5-3-5--|
A|-3-3--------------1-1-1/3----------3-3--------------1-1-1/3----------|
D|---------1-1-1-1----------6-6-6-6----------1-1-1-1-------------------|

G|-------------------------------------------------------------------|
D|-------------------------------------------------------------------|
A|-3-3--------------1-1-1/3----------3-3-----------------------------|
D|---------1-1-1-1----------6-6-6-6----------1-1-1-1-----------------|

Pre-Chorus
G|---------------------------------------------------------------------|
D|---------------------------------------------------------------------|
A|---------------------------------------------------------------------|
D|-8-8-8-8-8-8-5-5--6-6-6-6-6-6-6-6--8-8-8-8-8-8-5-5--6-6-6-6-8-8-8-8--|

Chorus
G|---------------------------------------------------------------------|
D|---------------------------------------------------------------------|
A|-6-6-6-6-6-6-6-6--5-5-5-5----------3-3-3-3-3-3-3-3-------------------| x2
D|--------------------------5-5-5-5-------------------6-6-6-6-6-6-6-6--|

Second Verse
G|---------------------------------------------------------------------|
D|------------------------------------------------------------6-5-3-5--|
A|-3-3--------------1-1-1/3----------3-3--------------1-1-1/3----------|
D|---------1-1-1-1----------6-6-6-6----------1-1-1-1-------------------|

G|-------------------------------------------------------------------|
D|-------------------------------------------------------------------|
A|-3-3--------------1-1-1/3----------3-3-----------------------------|
D|---------1-1-1-1----------6-6-6-6----------1-1-1-1-----------------|

Pre-Chorus
G|---------------------------------------------------------------------|
D|---------------------------------------------------------------------|
A|---------------------------------------------------------------------|
D|-8-8-8-8-8-8-5-5--6-6-6-6-6-6-6-6--8-8-8-8-8-8-5-5--6-6-6-6-8-8-8-8--|

Chorus
G|---------------------------------------------------------------------|
D|---------------------------------------------------------------------|
A|-6-6-6-6-6-6-6-6--5-5-5-5----------3-3-3-3-3-3-3-3-------------------| x2
D|--------------------------5-5-5-5-------------------6-6-6-6-6-6-6-6--|

Bridge
G|-------------------------------------------------------------------|
D|-------------------------------------------------------------------|
A|-------------------------------------------------------------------|
D|-1~~~~~~~~~~~~~~---------------------------------------------------|

G|-------------------------------------------------------------------|
D|-------------------------------------------------------------------|
A|---------1-1-1-----------------------------------------------------| x3
D|-1-1-1-1-------5--6-6-6-6-8-8-643----------------------------------|

G|-------------------------------------------------------------------|
D|-------------------------------------------------------------------|
A|---------1-1-1-----------------------------------------------------|
D|-1-1-1-1-------5--6-6-6-6-6-6-6-4--8-8-8-8-8-8-8-8-----------------|

G|-------------------------------------------------------------------|
D|-------------------------------------------------------------------|
A|-------------------------------------------------------------------|
D|-1~~~~~~~~~~~~~~---------------------------------------------------|

Note:  Wait for guitar to play its riff once.
G|---------------------------------------------------------------------|
D|---------------------------------------------------------------------|
A|---------------------------------------------------------------------| 
D|----------------------------------------------------6-6-6-6-6-6-6-6--|

Chorus
G|---------------------------------------------------------------------|
D|---------------------------------------------------------------------|
A|-6-6-6-6-6-6-6-6--5-5-5-5----------3-3-3-3-3-3-3-3-------------------| x4
D|--------------------------5-5-5-5-------------------6-6-6-6-6-6-6-6--|

End On
G|-------------------------------------------------------------------|
D|-------------------------------------------------------------------|
A|-------------------------------------------------------------------|
D|-1~~~~~~~~~~~~~~---------------------------------------------------|
Suggest correction
Give kudos to tab author, rate the tab!
1 2 3 4 5
comments
print report bad tab
1 comment total.
+1 reply
ninasophie 31 Aug 18, 2009 04:28 AM

Maby my guitar is not good tuned, but it don't sound right to me?

guest
You may want to rate the tab now too:
select rating
Wanna post a correction for this tab? Suggest correction