Oops, an error
Loading. Please wait.

Paper Wings Tab

version 2
version 2
105,241 views 33 this week
29 commentsread comments
1 2 3 4 5
accurate
x 46
add to favorites
launch autoscroll
font size
0
reset
how to read this tab
guitar tuner
Autoscroll
slow
fast
+/-
esc
set tempo
stop
Help us to improve Ultimate-Guitar.com Take our survey!
×
Author
Difficulty
Tuning
intermediate
D# G# C# F# A# D#
#----------------------------------PLEASE NOTE---------------------------------#
#This file is the author's own work and represents their interpretation of the #
#song. You may only use this file for private study, scholarship, or research. #
#------------------------------------------------------------------------------#


Title: Paper Wings
Artist: Rise Against
Album: Siren Song of the Counter Culture



Tabbed by: Hank Cramer (inrepair303@gmail.com)
http://www.inrepair303.com
http://www.reverbnation.com/inrepair2
http://www.facebook.com/inrepair303


--Tune Down 1/2 Step--
Eb, Ab, Db, Gb, Bb, Eb 


NOTE:  Palm muting is not included in this tab.  This is to give a rough idea of how to jam along with the song.
I have also read through a lot of the comments and they are great!  I will look the song over and make any
corrections as needed (with credit to the person you made the comment/correction).    




-INTRO/CHORUS-

Eb|--------------------------------------------------||
Bb|--------------------------------------------------||
Gb|-9-9-9-9-9-9-9-9-9-9-9-9--------------8-8-8-8-8-8-||
Db|-9-9-9-9-9-9-9-9-9-9-9-9--9-9-9-9-9-9-6-6-6-6-6-6-||
Ab|-7-7-7-7-7-7-7-7-7-7-7-7--6-6-6-6-6-6-------------||
Eb|--------------------------------------------------||


Eb|--------------------------------------------------||
Bb|--------------------------------------------------||
Gb|-6-6-6-6-6-6-6-6-6-6-6-6--------------------------||
Db|-6-6-6-6-6-6-6-6-6-6-6-6--7-7-7-7-7-7-7-7-7-7-7-7-||
Ab|-4-4-4-4-4-4-4-4-4-4-4-4--7-7-7-7-7-7-7-7-7-7-7-7-||
Eb|--------------------------5-5-5-5-5-5-5-5-5-5-5-5-||


-SOLO [INTRO/CHORUS]-

Eb|-7-5-4-5-4----7-5-9-9-9----5-4---4----------4-----||
Bb|-------------------------------7---7----7-5---7-5-||
Gb|--------------------------------------------------||
Db|--------------------------------------------------||
Ab|--------------------------------------------------||
Eb|--------------------------------------------------||



-VERSE RIFF 1-

Eb|--------------------------------------------------||
Bb|--------------------------------------------------||
Gb|--6-6-------------------4-4--4/6----2-2-2-2-2-2---||
Db|--6-6----2-2-2-2-2-2----4-4--4/6----2-2-2-2-2-2---||
Ab|--4-4----2-2-2-2-2-2----2-2--2/4----0-0-0-0-0-0---||
Eb|---------0-0-0-0-0-0------------------------------||

-VERSE RIFF 2-

Eb|--------------------------------------------------||
Bb|--------------------------------------------------||
Gb|--6-6-----------------444444-222222-444444-222222-||
Db|--6-6----2-2-2-2-2-2--444444-222222-444444-222222-||
Ab|--4-4----2-2-2-2-2-2--222222-000000-222222-000000-||
Eb|---------0-0-0-0-0-0------------------------------||



-BRIDGE-

Eb|--------------------------------------------------||
Bb|--------------------------------------------------||
Gb|-------------4-4-4-4-4-4-2-2-2-2-2-2-4-4-4-4-4-4--||
Db|-2-2-2-2-2-2-4-4-4-4-4-4-2-2-2-2-2-2-4-4-4-4-4-4--||
Ab|-2-2-2-2-2-2-2-2-2-2-2-2-0-0-0-0-0-0-2-2-2-2-2-2--||
Eb|-0-0-0-0-0-0--------------------------------------||

-[GUITAR SOLO]-  
Eb|------------------------------------------7-||
Bb|--5-5-7p5-4--5-5-7p5-4--5-5-7p5-4-5-5-4-4-0-||
Gb|--------------------------------------------||
Db|--------------------------------------------||
Ab|--------------------------------------------||
Eb|--------------------------------------------||

Eb|---------------------------------------5-5-5-4-4-4-7-7-7-7-7-7--||
Bb|-0-0h5h7-0h5h7-0h5h7-0h5h7-0h5h7-0h5h7-5-5-5-5-5-5-5-5-5-5-5-5--||
Gb|----------------------------------------------------------------||
Db|----------------------------------------------------------------||
Ab|----------------------------------------------------------------||
Eb|----------------------------------------------------------------||

Eb|-----------------------------0-0-0--------------||
Bb|-5-5-7p5--4-4-4----7p5--4-4--0-0-0--4-4-4-4--7--||
Gb|------------------------------------4-4-4-4-----||
Db|------------------------------------------------||
Ab|------------------------------------------------||
Eb|------------------------------------------------||

Eb|-0-7-0-0-5-0-0-4-0-7-0-0-5-0-0-4-0-7-0-0-5-0-0-4-0-4h5p4-0-0-0--||
Bb|---------------------------------------------------------7-7-7--||
Gb|----------------------------------------------------------------||
Db|----------------------------------------------------------------||
Ab|----------------------------------------------------------------||
Eb|----------------------------------------------------------------||
 




-INTRO[x3]-
-VERSUS RIFF1[x3]-
-VERSUS RIFF2-
-CHORUS[x2]
-VERSUS RIFF1[x3]-
-VERSUS RIFF2-
-CHORUS[x2]-
-BRIDGE[x4]-
-CHORUS[CLEANx2]-
-CHORUS[x4]-
Suggest correction
comments
print report bad tab
29 comments total. Showing first comments.
0 reply
crimsonlust 30 wrote on May 16 2006, 11:50 am

excellent. but why detune when u can jus move down a fret or a string? maybe im just lazy lol
nehu. 5 stars.

0 reply
blinnk16 103 wrote on June 3 2006, 07:58 pm

I haven't tried to play it yet, but it's VERSE not VERSUS, >_

0 reply
SteveHouse 40 wrote on June 7 2006, 02:34 pm

^lol

and you detune because it's right...

also, the end of the solo is lacking something...

e-4h5p4p0-0-0------
B-------------0~---

guest
You may want to rate the tab now too:
select rating
Please do not post tabs as comments. Select "correction" instead!