Oops, an error
Loading. Please wait.

Prayer Of A Refugee Bass Tab

18,777 views 1 this week
4 commentsread comments
1 2 3 4 5
x 4
add to favorites
launch autoscroll
font size
0
reset
guitar tuner
Autoscroll
slow
fast
+/-
esc
set tempo
stop
Help us to improve Ultimate-Guitar.com Take our survey!
×
Author
Song: Prayer Of A Refugee (aka Diaspora)
Band: Rise Against

Tabbed By Edthebassist

Tuning: E Flat Standard (EbAbDbGb)

I Tabbed this out by ear. It's hard to hear the bass line in the chorus, but it's there 
you listen closely. Some of the fill notes may be incorrect in the chorus. Please leave 
comment if there are any problems.

Gb|-------|
Db|-------|
Ab|-------|
Eb|-6/12~-|

Verse
Gb|------------------------------------|
Db|------------------------------------|
Ab|----------33333333-55555555---------|
Eb|-00000000-------------------55555-3-|

Gb|----------------------------------------|
Db|----------------------------------------|
Ab|------------33333333--------------------|
Eb|-3-00000000----------33333333-00000000--|

Gb|----------------------------------------|
Db|----------------------------------------|
Ab|-----------33--333--3-55-555-5----------|
Eb|-00--000--0-------------------55-55-3---|

Gb|----------------------------------------|
Db|----------------------------------------|
Ab|------------33-333--3-------------------|
Eb|-300--000--0---------33--333--3-0-------|


Chorus
Gb|--------------------------------------------------------------------------|
Db|--------------------------------------------------------------------------|
Ab|-------------------------------------------555555-3-4-2-33333333-33332200-|
Eb|-00000000-00001122-33333333-3333-2211-5555--------------------------------|

Gb|--------------------------------------------------------------------------|
Db|--------------------------------------------------------------------------|
Ab|-------------------------------------------555555-3-4-2-33333333-3333-3~--|
Eb|-00000000-00001122-33333333-3333-2211-5555--------------------------------|

Pre Verse 2
Gb|------|
Db|------|
Ab|------|
Eb|-12/--

	Play: Verse

	Play: Chorus

Bridge
Gb|-----------------------------------|
Db|-----------------------------------|
Ab|-----------------------------------| x3
Eb|-5555555555555555-3333333333333333-|

Gb|-----------------------------------|
Db|-----------------------------------|
Ab|-----------------------------------|
Eb|-1111111111111111-0000000000000000-|

Gb|--------------------|
Db|--------------------|
Ab|-33333333------5555-|
Eb|----------3333------|

Solo
Gb|----------------------------------------------------------------------|
Db|----------------------------------------------------------------------|
Ab|------------------------------------5555555555555555-3333333333333333-| x2
Eb|-00000000000000000-3333333333333333-----------------------------------|


Pause

Gb|---|
Db|---|
Ab|---|
Eb|-0-|

	Play: Chorus

Outro
Gb|-------------------------------------------------------------------|
Db|-------------------------------------------------------------------|
Ab|------------------------------------55-555-555-555-533-333-333-333-|
Eb|-00--000--000--000-033-333-333-333-3-------------------------------|

Gb|-----------------------------------------------------------------------------|
Db|-----------------------------------------------------------------------------|
Ab|-3-----------------------------------5555555555555555-3333333333333333-------|
Eb|--00000000000000000-3333333333333333-----------------------------------0~----|
Suggest correction
comments
print report bad tab
4 comments total. Showing first comments.
+3 reply
WarwickGhost 51 Nov 16, 2007 08:38 PM

This tab is way off, the song isn't even close to this.

+2 reply
davidfrancescon 30 Mar 19, 2008 06:14 PM

The song is no where close to this, i even turned the everything down and brought up only the bass on the song and it didnt sound anything like it

-2 reply
LuvJimmiHendrix 10 Mar 26, 2008 01:55 PM

Rise Against kicks ass! Come join my group. I made a promise that if 100 people join it, i'll-----

guest
You may want to rate the tab now too:
select rating
Wanna post a correction for this tab? Suggest correction