Oops, an error
Loading. Please wait.

Prayer Of The Refugee Bass Tab

version 1
version 1
88,596 views 48 this week
15 commentsread comments
1 2 3 4 5
x 30
add to favorites
launch autoscroll
font size
0
reset
guitar tuner
Autoscroll
slow
fast
+/-
esc
set tempo
stop
Help us to improve Ultimate-Guitar.com Take our survey!
×
Author
Tuning
D A D G B E
This is in Drop D

Intro slide thing
|------------|
|------------|
|------------|
|-7/14~~-----|

Verse
|----------------------------------------|
|----------------------------------------|
|----------22222222-44444444-------------|x2
|-11111111-------------------66666666----|

|--------------------------------|
|--------------------------------|
|--------2-22-2--4-44-4----------|
|-1-11-1----------------6-66-6---|

|--------------------------|
|--------------------------|
|--------2-22-2------------|
|-1-11-1--------4-44-4--1--|

Chorus
|-------------------------------------------------------------|
|-------------------------------------------------------------|
|-------------------------------44444444444444-22222222222222-|x2
|-11111111111111-44444444444444-------------------------------|

Verse
|----------------------------------------|
|----------------------------------------|
|----------22222222-44444444-------------|x2
|-11111111-------------------66666666----|

|--------------------------------|
|--------------------------------|
|--------2-22-2--4-44-4----------|
|-1-11-1----------------6-66-6---|

|--------------------------|
|--------------------------|
|--------2-22-2------------|
|-1-11-1--------4-44-4--1--|

Chorus
|-------------------------------------------------------------|
|-------------------------------------------------------------|
|-------------------------------44444444444444-22222222222222-|x2
|-11111111111111-44444444444444-------------------------------|


Bridge
|-------------------------------------|
|-------------------------------------|
|-------------------------------------|x3
|-6-66666666666666--4-44444444444444--|

|-------------------------------------|
|-------------------------------------|
|-------------------------------------|
|-2 22222222222222--1-11111111111111--|

Solo
|-------------------------------------------------------------|
|-------------------------------------------------------------|
|-------------------------------44444444444444-22222222222222-|x2
|-11111111111111-44444444444444-------------------------------|

then pause 

|-----------------------------------------------------------------|
|-----------------------------------------------------------------|
|-----------------------------------44444444444444-22222222222222-|x2
|-1---11111111111111-44444444444444-------------------------------|

|--------------------------------------------------------|
|--------------------------------------------------------|
|_----------------------------4-44-44-44-4--2-22-22-22-2-|
|-1-11-11-11-1--4-44-44-44-4-----------------------------|

|-----------------------------------------------------------------|
|-----------------------------------------------------------------|
|-------------------------------44444444444444-22222222222222-----|
|-11111111111111-44444444444444-------------------------------1~~-|


Enjoy
Suggest correction
comments
print report bad tab
15 comments total. Showing first comments.
+2 reply
catchy phrase 92 Oct 26, 2006 07:21 PM

listen closely to the last regular chorus of the song, you can hear this cool bass line that is more than just root notes. it'd be fairlt impossible to tab though.

+1 reply
mcra7xra 175 Nov 23, 2006 10:37 PM

good. i think that's how i play it...nice.

+2 reply
AsteriX018 176 Jan 06, 2007 06:50 PM

Sick tab and it's correct. Though I think that the slide part should be E|--7/13--| instead of 14...

guest
You may want to rate the tab now too:
select rating
Wanna post a correction for this tab? Suggest correction