Oops, an error
Loading. Please wait.

Prayer Of The Refugee Tab

version 1
464,096 views 537 this week
31 commentsread comments
1 2 3 4 5
accurate
x 50
add to favorites
launch autoscroll
font size
0
reset
how to read this tab
guitar tuner
Autoscroll
slow
fast
+/-
esc
set tempo
stop
Help us to improve Ultimate-Guitar.com Take our survey!
×
Author
Difficulty
Tuning
intermediate
D A D G B E
Drop D tuning
The intro is with help from my brother.


[Intro/part of verse]

e----------------------------------|
b--7--6-6---7-7---6-6---7-7---6-6--|
g--8--8-8---8-8---8-8---8-8---8-8--|
d----------------------------------|
a----------------------------------|
d----------------------------------|
repeat as nessesary

this is the last note he hits before adding distortion (I think)
e-------|
b--4-4--|
g--6-6--|
d-------|
a-------|
d-------|


Distorted part of [verse]

e-----------------------------------|
b-----------------------------------|
g----------4--4-4---6--6-6----------|
d-1--1-1---4--4-4---6--6-6---6--6-6-|
a-1--1-1---2--2-2---4--4-4---6--6-6-|
d-1--1-1---------------------6--6-6-|

e-----------------------------|
b-----------------------------|
g----------4--4-4-------------|
d-1--1-1---4--4-4---4--4-4--1-|
a-1--1-1---2--2-2---4--4-4--1-|
d-1--1-1------------4--4-4--1-|


Here's the awesome [chorus]

e---------------------------------|
b---------------------------------|
g------------------6-------4------|end on 4
d-1-------4--------6--x16--4--x16-|       4
a-1-x16---4--x16---4-------2------|       2
d-1-------4-----------------------|

[verse] (sorry I don't know the sliding stuff he does in the backround)

[chorus]


[Bridge]

e----------------------------------------------------------------------------|
b----------------------------------------------------------------------------|
g----------------------------------------------------------------------------|
d--6--6-6-6-6-6-6-6-6-6-6-6-6-6-6-6-6---4--4-4-4-4-4-4-4-4-4-4-4-4-4-4-4-4---|x3
a--6--6-6-6-6-6-6-6-6-6-6-6-6-6-6-6-6---4--4-4-4-4-4-4-4-4-4-4-4-4-4-4-4-4---|
d--6--6-6-6-6-6-6-6-6-6-6-6-6-6-6-6-6---4--4-4-4-4-4-4-4-4-4-4-4-4-4-4-4-4---|


e----------------------------------------------------------------------------|
b----------------------------------------------------------------------------|
g----------------------------------------------------------------------------|
d--2--2-2-2-2-2-2-2-2-2-2-2-2-2-2-2-2---1--1-1-1-1-1-1-1-1-1-1-1-1-1-1-1-1---|
a--2--2-2-2-2-2-2-2-2-2-2-2-2-2-2-2-2---1--1-1-1-1-1-1-1-1-1-1-1-1-1-1-1-1---|
d--2--2-2-2-2-2-2-2-2-2-2-2-2-2-2-2-2---1--1-1-1-1-1-1-1-1-1-1-1-1-1-1-1-1---|


e------------------------------------------|
b------------------------------------------|
g--8-8-8-8-8-8-8-8-11-11-11-11-10-10-10-10-|
d--x-x-x-x-x-x-x-x-x--x--x--x--x--x--x--x--|
a--6-6-6-6-6-6-6-6-9--9--9--9--8--8--8--8--|
d------------------------------------------|


[solo]

e------------------------------------------|
b------------------------------------------|
g-8-8-8-8-8-8-8-8-10-10-10-10-11-11-11-11--|
d-x-x-x-x-x-x-x-x-x--x--x--x--x--x--x--x---|x3
a-6-6-6-6-6-6-6-6-8--8--8--8--9--9--9--9---|
d------------------------------------------|

e---------------------------------|
b---------------------------------|
g-8-8-8-8-8-8-8-8-6-6-6-6-6-6-6-6-|
d-x-x-x-x-x-x-x-x-x-x-x-x-x-x-x-x-|
a-6-6-6-6-6-6-6-6-4-4-4-4-4-4-4-4-|
d---------------------------------|

e-----------------------------------------------------------------------------|
b-----------------------------------------------------------------------------|
g-15--11--15-16-15-13-15--11--15-16-15-13-13--13--13-13-13-11--15--15--15--15-|
d-x---x---x--x--x--x--x---x---x--x--x--x--x---x---x--x--x--x---x---x---x---x--|
a-13--9---13-14-13-11-13--9---13-14-13-11-11--11--11-11-11-9---13--13--13--13-|
d-----------------------------------------------------------------------------|
    .   .               .   .               .   .                .   .   .
let the last note ring

clean verse part (last note hit with distortion is D#)
chorus (end on D#)


************************************

| x  Dead note

************************************

This is my 2nd favorite song on the record.  These guys are amazing and I think everyone
buy their cd.  Comments or Questions? email me at scud-2-2a@hotmail.com
Suggest correction
comments
print report bad tab
31 comments total. Showing first comments. show 1 bad comment
+3 reply
Secret_Schecter 10 wrote on July 20 2006, 12:57 am

I learned the into in one minute, haha. Throw food at me, I suck. >:)

0 reply
sk8punk49 59 wrote on July 24 2006, 02:52 pm

I think this is a hell of alot better then the other one, intro sounds way better played:
--------- -2------------
-7-6-6--- -3--4-----------
-8-8-8-- Then -4--4----------
-------- ----2----------
-------- --------------
--------- --------------

Good Job , I Rated This Tab a 5, although its not perfect, its 100% better then the other tab

guest
You may want to rate the tab now too:
select rating
Please do not post tabs as comments. Select "correction" instead!