Oops, an error
Loading. Please wait.
We have Chord Pro version of Prayer Of The Refugee.
It's the closest thing you can get to the original song and it has interactive parts. Check out the tab »
×
63,976 views 6 this week
11 commentsread comments
1 2 3 4 5
x 32
add to favorites
×
Save as Personal and add changes to this tab that will be seen only by you. Learn more ›
×
You can save this tab as Personal to edit and correct it or add notes. All changes will be seen only by you. Learn more »
save as personal
new!
launch autoscroll
font size
0
reset
guitar tuner
backing track
0:00
0:00
Autoscroll
slow
fast
+/-
esc
set tempo
stop
Author
Tuning
D A D G
Song: Prayer of the Refugee
Band: Rise Against
Tabbed by: WarwickGhost
Tuning: Drop D

I am pretty sure that this is the only right bass tab for this song.

[Introduction]
G:--------------|
D:--------------|
A:-------0/6----|
D:--------------|

[Verse]
"Warm yourself by the fire..."
G:--------------------------------------------------------------------|
D:--------------------------------------------------------------------|
A:---------2222222244444444------------------22222222-----------------|
D:-11111111----------------66666-4-6-11111111--------4444444411111111-|

[Pre-Chorus]
"Before we packed our bags..."
G:-----------------------------------------------|
D:-----------------------------------------------|
A:-------2-22-24-44-4--------------2-22-2--------|
D:-1-11-1------------6-6-4-6-1-11-1------4-44-41-|

[Chorus]
"Don't hold me up, now..."
Note: The parenthesis around "11" are not harmonics or pinch harmonics, it is stating 
that is 2 11's and not 4 1's.
G:-------------------------------------------------------------------------------|
D:---------------------------------------------------88-99-88--------------------|
A:-6-666-666-666-8-9-999-999-999-8-(11)(11)-4-444-444--------2-222-2-99-88-66-44-|
D:-------------------------------------------------------------------------------|

"Don't Hold me up, now..."
G:-----------------------------------------------------------------------------|----------|
D:---------------------------------------------------88-99-88------------------|----------|
A:-6-666-666-666-8-9-999-999-999-8-(11)(11)-4-444-444--------2-222-222-222-----|---0/6----|
D:-----------------------------------------------------------------------------|----------|

[Verse] x1
G:--------------------------------------------------------------------|
D:--------------------------------------------------------------------|
A:---------2222222244444444------------------22222222-----------------|
D:-11111111----------------66666-4-6-11111111--------4444444411111111-|

[Pre-Chorus] x1
G:-----------------------------------------------|
D:-----------------------------------------------|
A:-------2-22-24-44-4--------------2-22-2--------|
D:-1-11-1------------6-6-4-6-1-11-1------4-44-41-|

[Chorus] (Without Slide at the End) x 1
G:-------------------------------------------------------------------------------|
D:---------------------------------------------------88-99-88--------------------|
A:-6-666-666-666-8-9-999-999-999-8-(11)(11)-4-444-444--------2-222-2-99-88-66-44-|
D:-------------------------------------------------------------------------------|

"Don't Hold me up, now..."
G:-----------------------------------------------------------------------------|
D:---------------------------------------------------88-99-88------------------|
A:-6-666-666-666-8-9-999-999-999-8-(11)(11)-4-444-444--------2-222-222-222-----|
D:-----------------------------------------------------------------------------|

[Bridge]
"So open your eyes..."
G:---------------------------------|
D:---------------------------------|
A:---------------------------------|
D:-6-666-666-666-64-444-444-444-4--| x3

"Of the lives that we lost..."
G:------------------------------------------------|
D:------------------------------------------------|
A:---------------------------------2-22-2-----5-5-|
D:-2-222-222-222-21-111-111-111-1---------4-4-----|

"GO!"
G:----------------------------------------------------------------|
D:----------------------------------------------------------------|
A:--------------------------------4-444-444-444-4-2-222-222-222-2-|
D:-1-111-111-111-3-4-444-444-444-4--------------------------------|x2

G:-------------|
D:-------------|
A:----0/6------|
D:-----------1-|

[Chorus] x1
G:-------------------------------------------------------------------------------|
D:---------------------------------------------------88-99-88--------------------|
A:-6-666-666-666-8-9-999-999-999-8-(11)(11)-4-444-444--------2-222-2-99-88-66-44-|
D:-------------------------------------------------------------------------------|

G:-----------------------------------------------------------------------------|----------|
D:---------------------------------------------------88-99-88------------------|----------|
A:-6-666-666-666-8-9-999-999-999-8-(11)(11)-4-444-444--------2-222-222-222-----|---0/6----|
D:-----------------------------------------------------------------------------|----------|

[Ending]
"Don't hold me uuuuupppp..."
G:-------------------------------------------------------------------------------|
D:---------------------------------------------------88-99-88--------------------|
A:-6-666-666-666-8-9-999-999-999-8-(11)(11)-4-444-444--------2-222-2-99-88-66-44-|
D:-------------------------------------------------------------------------------|

G:---------------------------------------------------------------------------|
D:---------------------------------------------------88-99-88----------------|
A:-6-666-666-666-8-9-999-999-999-8-(11)(11)-4-444-444--------2-222-2-9-8-6-4-|
D:---------------------------------------------------------------------------|

"Doooown!"
G:------|
D:------|
A:------|
D:-1----|

************************************

| /    Slide up
| (n)  Ghost note
  

************************************
Suggest correction
comments
print report bad tab
11 comments total. Showing first comments.
-1 reply
WarwickGhost 51 Nov 16, 2007 07:51 AM

If you are reading these comments, here is a link to me playing it on YouTube For
help:

http://www.youtube.com/watch?v=B0Np1ya_imo

+3 reply
Arycama 211 Nov 21, 2007 02:51 AM

Seems pretty good except, Rise against dont play in drop D. They play in standard and 1/2 step down (Eb standard)
However for the people that dont care, it would work fine, so i give you 5 stars.

0 reply
WarwickGhost 51 Nov 21, 2007 04:24 PM

I know, but I am sick of tuning down to a half step (I'm in that tuning right now but I was playing a bunch of AFI and
Taking Back Sunday songs) but if you really want you you can convert it.

guest
You may want to rate the tab now too:
select rating
Wanna post a correction for this tab? Suggest correction