Oops, an error
Loading. Please wait.

Prayer Of The Refugee Tab

version 2
516,592 views 180 this week
45 commentsread comments
1 2 3 4 5
excellent!
x 168
add to favorites
launch autoscroll
font size
0
reset
how to read this tab
guitar tuner
Autoscroll
slow
fast
+/-
esc
set tempo
stop
Help us to improve Ultimate-Guitar.com Take our survey!
×
Author
Artist : Rise Against
Song : Prayer Of The Refugee
Album : The Sufferer & The Witness
Tuning : Drop D
Tabbed By : Aaron Kunde


 [Intro/Verse]

( rhythm )
e|------------------------------------------------------------------------------------------------|
B|-7-66-77-66-77-66-77-66-77-66-77-66-77-66-77-66-77-66-77-66-77-66-------77-66-77-66-77-66-77-66-|
G|-8-88-88-88-88-88-88-88-88-88-88-88-88-88-88-88-88-88-88-88-88-88-88-88-88-88-88-88-88-88-88-88-|
D|------------------------------------------------------------------88-88-------------------------|
A|------------------------------------------------------------------------------------------------|
E|------------------------------------------------------------------------------------------------|

 ( lead )
e|---------------------------------------------|
B|---------------------------------------------|
G|---------------------------------------------|
D|-------4-44-46-66-6------------4-44-4--------|
A|-1-11-12-22-24-44-46-66-61-11-12-22-24-44-41-|
E|-1-11-1------------6-66-61-11-1------4-44-41-|


[Chorus]

( rhythm )
e|--------------------------------------------------------------------|
B|--------------------------------------------------------------------|
G|--------------------------------------------------------------------|
D|-----------------------------------6666666666666666-4444444444444444|
A|-1111111111111111-4444444444444444-4444444444444444-2222222222222222|
E|-1111111111111111-4444444444444444----------------------------------|

e|-----------------------------------------------------------------------|
B|-----------------------------------------------------------------------|
G|-----------------------------------------------------------------------|
D|-----------------------------------6666666666666666-4444444444444444-4-|
A|-1111111111111111-4444444444444444-4444444444444444-2222222222222222-2-|
E|-1111111111111111-4444444444444444-------------------------------------|
                                                 ^
 ( lead )
e|----------------------------------------------------------------------------------------------------|
B|----------------------------------------------------------------------------------------------------|
G|-8-6/8-6/8-6/1010-8-6/8-6/8-6/1010-8-6/8-6/8-6/1010-13-13-13-13-11-11-11-11-10-10-10-10-11-11-11-11-|
D|-x-x/x-x/x-x/x-x--x-x/x-x/x-x/x-x--x-x/x-x/x-x/x-x---x--x--x--x--x--x--x--x--x--x--x--x--x--x--x--x-|
A|-6-4/6-4/6-4/8-8--6-4/6-4/6-4/8-8--6-4/6-4/6-4/8-8--11-11-11-11--9--9--9--9--8--8--8--8--9--9--9--9-|
E|----------------------------------------------------------------------------------------------------|

e|-----------------------------------------------------------------------------------------------------|
B|-----------------------------------------------------------------------------------------------------|
G|--8-6/8-6/8-6/1010-8-6/8-6/8-6/1010-8-6/8-6/8-6/1010-13-13-13-13-11-11-11-11-10-10-10-10-11------8---|
D|--x-x/x-x/x-x/x-x--x-x/x-x/x-x/x-x--x-x/x-x/x-x/x-x---x--x--x--x--x--x--x--x--x--x--x--x--x------x---|
A|--6-4/6-4/6-4/8-8--6-4/6-4/6-4/8-8--6-4/6-4/6-4/8-8--11-11-11-11--9--9--9--9--8--8--8--8--9------6---|
E|-----------------------------------------------------------------------------------------------------|

 ^      ^
 [Verse 2]

( rhythm )
e|------------------------------------------------------------------------------------------------|
B|-7-66-77-66-77-66-77-66-77-66-77-66-77-66-77-66-77-66-77-66-77-66-------77-66-77-66-77-66-77-66-|
G|-8-88-88-88-88-88-88-88-88-88-88-88-88-88-88-88-88-88-88-88-88-88-88-88-88-88-88-88-88-88-88-88-|
D|------------------------------------------------------------------88-88-------------------------|
A|------------------------------------------------------------------------------------------------|
E|------------------------------------------------------------------------------------------------|

 ( lead )
e|---------------------------------------------------------------------------|
B|---------------------------------------------------------------------------|
G|-6/8-----11-13-15\8------4-6-3---------------------------------------------|
D|-x/x------x--x--x\x------x-x-x-------4-44-46-66-6------------4-44-4--------|
A|-4/6------9-11-13\6------2-4-1-1-11-12-22-24-44-46-66-61-11-12-22-24-44-41-|
E|-------------------------------1-11-1------------6-66-61-11-1------4-44-41-|
    ^              ^

[Chorus]

( rhythm )
e|--------------------------------------------------------------------|
B|--------------------------------------------------------------------|
G|--------------------------------------------------------------------|
D|-----------------------------------6666666666666666-4444444444444444|
A|-1111111111111111-4444444444444444-4444444444444444-2222222222222222|
E|-1111111111111111-4444444444444444----------------------------------|

e|-----------------------------------------------------------------------|
B|-----------------------------------------------------------------------|
G|-----------------------------------------------------------------------|
D|-----------------------------------6666666666666666-4444444444444444-4-|
A|-1111111111111111-4444444444444444-4444444444444444-2222222222222222-2-|
E|-1111111111111111-4444444444444444-------------------------------------|

 ( lead )
e|----------------------------------------------------------------------------------------------------|
B|----------------------------------------------------------------------------------------------------|
G|-8-6/8-6/8-6/1010-8-6/8-6/8-6/1010-8-6/8-6/8-6/1010-13-13-13-13-11-11-11-11-10-10-10-10-11-11-11-11-|
D|-x-x/x-x/x-x/x-x--x-x/x-x/x-x/x-x--x-x/x-x/x-x/x-x---x--x--x--x--x--x--x--x--x--x--x--x--x--x--x--x-|
A|-6-4/6-4/6-4/8-8--6-4/6-4/6-4/8-8--6-4/6-4/6-4/8-8--11-11-11-11--9--9--9--9--8--8--8--8--9--9--9--9-|
E|----------------------------------------------------------------------------------------------------|

e|-----------------------------------------------------------------------------------------------------|
B|-----------------------------------------------------------------------------------------------------|
G|--8-6/8-6/8-6/1010-8-6/8-6/8-6/1010-8-6/8-6/8-6/1010-13-13-13-13-11-11-11-11-10-10-10-10-11-11-11-11-|
D|--x-x/x-x/x-x/x-x--x-x/x-x/x-x/x-x--x-x/x-x/x-x/x-x---x--x--x--x--x--x--x--x--x--x--x--x--x--x--x--x-|
A|--6-4/6-4/6-4/8-8--6-4/6-4/6-4/8-8--6-4/6-4/6-4/8-8--11-11-11-11--9--9--9--9--8--8--8--8--9--9--9--9-|
E|-----------------------------------------------------------------------------------------------------|


 [Interlude]

( rhythm )
e|---------------------------------------------------------------------------|
B|---------------------------------------------------------------------------|
G|---------------------------------------------------------------------------|
D|---------------------------------------------------------------------------|
A|-6-66666666666666-4-4444444444444444-6-6666666666666666-4-4444444444444444-|
E|-6-66666666666666-4-4444444444444444-6-6666666666666666-4-4444444444444444-|
    ..............   ............ ..    ................   ............ ..
    ............ ..     ..............................


e|------------------------------------------------------------------------|
B|------------------------------------------------------------------------|
G|------------------------------------------------------------------------|
D|------------------------------------------------------------------------|
A|-6-6666666666666666-4-4444444444444444-2-222222222222222111111111111111-|
E|-6-6666666666666666-4-4444444444444444-2-222222222222222111111111111111-|


( lead )
|-----------------------------------------------------------------------------------------------------------|
|-----------------------------------------------------------------------------------------------------------|
|-8------------6--------------8-------------11/6--------------8--------------6--------------4------------3--|
|-x------------x--------------x--------------x/x--------------x--------------x--------------x------------x--|
|-6------------4--------------6--------------9/4--------------6--------------4--------------2------------1--|
|-----------------------------------------------------------------------------------------------------------|
  ^                ^                  ^                    ^                  ^
       ^                  ^                ^

[Pre Solo]

 ( rhythm )
e|--------------|
B|--------------|
G|--------------|
D|-4444444---66-|
A|-2222222-4-44-|
E|---------4----|

 ( lead )
e|---------------|
B|---------------|
G|-8888888-11-88-|
D|-xxxxxxx--x-xx-|
A|-6666666--9-66-|
E|---------------|


[Solo]

( rhythm )
e|--------------------------------------------------------------------|
B|--------------------------------------------------------------------|
G|--------------------------------------------------------------------|
D|-----------------------------------6666666666666666-4444444444444444|
A|-1111111111111111-4444444444444444-4444444444444444-2222222222222222|
E|-1111111111111111-4444444444444444----------------------------------|

e|-------------------------------------------------------------------------|
B|-------------------------------------------------------------------------|
G|-------------------------------------------------------------------------|
D|-----------------------------------6666666666666666-4444444444444444-4---|
A|-1111111111111111-4444444444444444-4444444444444444-2222222222222222-2---|
E|-1111111111111111-4444444444444444---------------------------------------|

 ( lead )
e|-------------------------------------------------------------------------------|
B|-------------------------------------------------------------------------------|
G|-8-8-8-8-8-8-8-10-10-10-10-11-11-11-11-8-8-8-8-8-8-8-8-10-10-10-10-11-11-11-11-|
D|-x-x-x-x-x-x-x--x--x--x--x--x--x--x--x-x-x-x-x-x-x-x-x--x--x--x--x--x--x--x--x-|
A|-6-6-6-6-6-6-6--8--8--8--8--9--9--9--9-6-6-6-6-6-6-6-6--8--8--8--8--9--9--9--9-|
E|-------------------------------------------------------------------------------|


e|-------------------------------------------------------------------------|
B|-------------------------------------------------------------------------|
G|-8-8-8-8-8-8-8-8-10-10-10-10-11-11-11-11-8-8-8-8-8-8-8-8-8-6-6-6-6-6-6-6-|
D|-x-x-x-x-x-x-x-x--x--x--x--x--x--x--x--x-x-x-x-x-x-x-x-x-x-x-x-x-x-x-x-x-|
A|-6-6-6-6-6-6-6-6--8--8--8--8--9--9--9--9-6-6-6-6-6-6-6-6-6-4-4-4-4-4-4-4-|
E|-------------------------------------------------------------------------|

e|-------------------------------------------------------------------------------|
B|-------------------------------------------------------------------------------|
G|-15--11--15-16-15-13-15--11--15-16-15-13-13-13--13--13-13-11-15--15--15--15----|
D|--x---x---x--x--x--x--x---x---x--x--x--x--x--x---x---x--x--x--x---x---x---x----|
A|-13---9--13-14-13-11-13---9--13-14-13-11-11-11--11--11-11--9-13--13--13--13----|
E|-------------------------------------------------------------------------------|
                                                                           ^

[Fill]

( rhythm )
|--------------------|
|-7-66-77-66-77-66---|
|-8-88-88-88-88-88-8-|
|------------------8-|
|--------------------|
|--------------------|

 ( lead )
e|--------------------|
B|--------------------|
G|--------------------|
D|--------------------|
A|------------------1-|
E|------------------1-|


[Chorus]

( rhythm )
e|--------------------------------------------------------------------|
B|--------------------------------------------------------------------|
G|--------------------------------------------------------------------|
D|-----------------------------------6666666666666666-4444444444444444| x2
A|-1111111111111111-4444444444444444-4444444444444444-2222222222222222|
E|-1111111111111111-4444444444444444----------------------------------|

 ( lead )
e|----------------------------------------------------------------------------------------------------|
B|----------------------------------------------------------------------------------------------------|
G|-8-6/8-6/8-6/1010-8-6/8-6/8-6/1010-8-6/8-6/8-6/1010-13-13-13-13-11-11-11-11-10-10-10-10-11-11-11-11-|
D|-x-x/x-x/x-x/x-x--x-x/x-x/x-x/x-x--x-x/x-x/x-x/x-x---x--x--x--x--x--x--x--x--x--x--x--x--x--x--x--x-|
A|-6-4/6-4/6-4/8-8--6-4/6-4/6-4/8-8--6-4/6-4/6-4/8-8--11-11-11-11--9--9--9--9--8--8--8--8--9--9--9--9-|
E|----------------------------------------------------------------------------------------------------|

e|-----------------------------------------------------------------------------------------------------|
B|-----------------------------------------------------------------------------------------------------|
G|--8-6/8-6/8-6/1010-8-6/8-6/8-6/1010-8-6/8-6/8-6/1010-13-13-13-13-11-11-11-11-10-10-10-10-11-11-11-11-|
D|--x-x/x-x/x-x/x-x--x-x/x-x/x-x/x-x--x-x/x-x/x-x/x-x---x--x--x--x--x--x--x--x--x--x--x--x--x--x--x--x-|
A|--6-4/6-4/6-4/8-8--6-4/6-4/6-4/8-8--6-4/6-4/6-4/8-8--11-11-11-11--9--9--9--9--8--8--8--8--9--9--9--9-|
E|-----------------------------------------------------------------------------------------------------|


[Outro]

( rhythm )
e|---------------------------------------------------------|
B|---------------------------------------------------------|
G|---------------------------------------------------------|
D|-----------------------------66-666-66-666-44-444-44-444-|
A|-11-111-11-111-44-444-44-444-44-444-44-444-22-222-22-222-|
E|-11-111-11-111-44-444-44-444-----------------------------|

e|-----------------------------------------------------------------------|
B|-----------------------------------------------------------------------|
G|-----------------------------------------------------------------------|
D|-----------------------------------6666666666666666-4444444444444444---|
A|-1111111111111111-4444444444444444-4444444444444444-2222222222222222-1-|
E|-1111111111111111-4444444444444444-----------------------------------1-|


 ( lead )
e|---------------------------------------------------------|
B|---------------------------------------------------------|
G|---------------------------------------------------------|
D|-----------------------------66-666-66-666-44-444-44-444-|
A|-11-111-11-111-44-444-44-444-44-444-44-444-22-222-22-222-|
E|-11-111-11-111-44-444-44-444-----------------------------|

e|-----------------------------------------------------------------------------------------------------|
B|-----------------------------------------------------------------------------------------------------|
G|--8-6/8-6/8-6/1010-8-6/8-6/8-6/1010-8-6/8-6/8-6/1010-13-13-13-13-11-11-11-11-10-10-10-10-11------8---|
D|--x-x/x-x/x-x/x-x--x-x/x-x/x-x/x-x--x-x/x-x/x-x/x-x---x--x--x--x--x--x--x--x--x--x--x--x--x------x---|
A|--6-4/6-4/6-4/8-8--6-4/6-4/6-4/8-8--6-4/6-4/6-4/8-8--11-11-11-11--9--9--9--9--8--8--8--8--9------6---|
E|-----------------------------------------------------------------------------------------------------|

^      ^

************************************

x = lightly touch strings with fingertips
^ = let ring out
. = palm muted
/ = slide up
\ = slide down

************************************
Suggest correction new What's this?
You can suggest a correction to this tab. Community and Mods will review your correction and vote to approve or reject it.
comments
print report bad tab
45 comments total. Showing first comments.
0 reply
justin43091 73 wrote on August 15 2006, 07:52 pm

DUDE THIS IS PERFECT u rock 100% 5 stars

+1 reply
garrett5 441 wrote on August 21 2006, 05:12 pm

Nice Tab - 5 stars

+1 reply
shugo449 874 wrote on September 2 2006, 02:50 pm

really good tab... 5*

guest
You may want to rate the tab now too:
select rating
Please do not post tabs as comments. Select "correction" instead!